Nymphetamine

Cradle Of Filth

 Cradle Of Filth
Tom: C#
		
INTRO: C5 D#5 G#5 F5 C5 
 
C5 
Lead to the river 
D#5 
Midsummer, I waved 
G#5           F5 
A V of black swans 
       C5 
On with hope to the grave 
C5
And through Red September 
D#5 
With skies fire-paved 
G#5           F5 
I begged you appear 
      C5 
Like a thorn for the holy ones 
 
Riff 1 
 

e|------------------------------------------
B|--8-6-8-8-6-8-6-8-8-6-8-6-8-8-6-8-6-8-----
G|-------8---------8---------7---------7----
D|------------------------------------------
A|------------------------------------------
E|------------------------------------------

cont. 

e|-------------------------------------------|       
B|--8-6-8-8-6-8-6-8-8-6-8-6-8-8-6-8-6-8-9-8-6| 
G|-------5---------5---------8---------------| 
D|-------------------------------------------| 
A|-------------------------------------------| 
E|-------------------------------------------| 

verso 
(C5  D#5  G#5 F5 C5) (riff1) 
Cold was my soul 
Untold was the pain 
I faced when you left me 
A rose in the rain... 
So i swore to the razor 
Than never, enchained 
Would your dark nails of faith 
Be pushed through my veins again 
 
pré refrão 
G5               F5 
Bared on your tomb 
       G5              D#5       
I am a prayer for your loneliness 
G5                  F5 
And would you ever soon 
    D#5           F5 
Come above onto me? 
G5               F5 
For once upon a time 
      G5              D#5 
From the binds of ur lowliness 
G5             F5 
I could always find 
          D#5            F5 
The right slot for your sacred key... 
 
Riff 2 

e|---------------------------------- 
B|---------------------------------- 
G|-3-5--7-8-7-8-7-5--8-10-8-10-8-7-- 
D|---------------------------------- 
A|-1-3--5-6-5-6-5-3--6-8--6--8-6-5-- 
E|---------------------------------- 

 
cont. 

e|------------------------------| 
B|------------------------------| 
G|--12-13-12--13-12-10-8-10-12--| 
D|------------------------------| 
A|--10-11-10--11-10-8--6-8-10---| 
E|------------------------------| 

toca esse riff no refrao todo. 
 
refrão 
 
Six feet deep is the incision 
In my heart, that barless prison 
Discolours all with tunnel vision 
Sunsetter... 
Nymphetamine 
 
Sick and weak from my condition 
This lust, this vampyric addiction 
To Her alone in full submission 
None better... 
Nymphetamine 
 
(F#5 A5 G#5 F5 F#5) 4x 
 
Wracked with your charm 
I am circled like prey 
Back in the forest 
Where whispers persuade 
More sugar trails 
More white lady laid 
Than pillars of salt... 
(keeping Sodom at night at bay) 
 
(C5  D#5  G#5 F5 C5) (Riff1) 
Fold to my arms 
Hold their mesmeric sway 
And dance out to the moon 
As we did in those golden days 
 
(C5  D#5  G#5 F5 C5) (Riff1) 
Christening stars 
I remember the way 
We were needle and spoon 
Mislaid in the burning hay 
 
(G5 F5 G5 D#5 G5 F5 D#5 F5) 
Bared on your tomb 
I am a prayer for your loneliness 
And would you ever soon 
Come above onto me? 
For once upon a time 
From the binds of ur lowliness 
I could always find 
The right slot for your sacred key... 
 
refrão 
(RIFF2) 
 
Six feet deep is the incision 
In my heart, that barless prison 
Discolours all with tunnel vision 
Sunsetter... 
Nymphetamine 
 
 
Sick and weak from my condition 
This lust, this vampyric addiction 
To Her alone in full submission 
None better... 
Nymphetamine 
 
(F#5 A5 G#5 F5 F#5) 4x 
Riff 1 ficando lento.

Comentários 3

Composição: Cradle of Filth / Dani Filth / Deleno Matthews / Freddie Mercury / Kelton Kessee
Esse não é o compositor? Avise-nos.
Contribuição: Anna Gabriella Correções: Anna Gabriella e mais 1 »
Exibir acordes »
publicidade
fechar