Don't Dream It's Over

Crowded House

 Crowded House
Tom: D
		
Intro: D9  D7/9  D7/4

D9                     Bm
There is freedom within, there is freedom without
G                                  F# A7
Try to catch the deluge in a paper cup
D9                      Bm
There's a battle ahead, many battles are lost
G
But you'll never see the end of the road
             F#            A7
While you're traveling with me

Refrão:
G        A
Hey now, hey now
D9                Bm
Don't dream it's over
G        A
Hey now, hey now
         D9       Bm
When the world comes in
G          A
They come, they come
D9                    Bm
To build a wall between us
G                     A7
We know they won't win

D9                      Bm
Now I'm towing my car, there's a hole in the roof
G                                  F#                     A7
My possessions are causing me suspicion but there's no proof
D9                      Bm
In the paper today tales of war and of waste
G                                  F#   A7
But you turn right over to the T.V. page

Refrão:
G        A
Hey now, hey now
D9                Bm
Don't dream it's over
G        A
Hey now, hey now
         D9        Bm
When the world comes in
G          A
They come, they come
D9                    Bm
To build a wall between us
G                     A
We know they won't win

Solo: G  D (3x) 

      C
E|-----5-7-5--------4----|-----5-7-5----------------|-----5-7-5--------4-|
B|---5--------5-----5----|---5--------5---7/9-7-----|---5--------5-----5-|
G|-6------------4-4----4-|-6------------4-------9---|-6------------4-4---|
D|-7------------6-6------|-7------------6---------9-|-7------------6-6---|
A|-----------------------|--------------------------|--------------------|
E|-----------------------|--------------------------|--------------------|



E|---------------5-------------5--5/7-10----------19-|
B|-------5---5/7-----------5/7-----------12-12/14----|
G|-----5------------4/5-4----------------------------|
D|---7-----------------------------------------------|
A|-5-------------------------------------------------|
E|---------------------------------------------------|


D9               Bm
Now I'm walking again to the beat of a drum
G                                              F#   A7
And I'm counting the steps to the door of your heart
D9               Bm
Only shadows ahead barely clearing the roof
G                                     F#       A7
Get to know the feeling of liberation and relief

Refrão:
G        A
Hey now, hey now
D9                Bm
Don't dream it's over
G        A
Hey now, hey now
         D9        Bm
When the world comes in
G          A
They come, they come
D9                    Bm
To build a wall between us
G                     A
We know they won't win

Comentários 3

  • Lukas Lukas: Postado em 22/06/2014 16:46

    Cima Cima Baixo

  • licia licia: Postado em 13/10/2013 21:08

    perfeita

  • Anderson Anderson : Postado em 25/04/2013 19:55

    Tocar com o capo na 1ª casa

Composição: Guto Graça Mello / M. Chapman
Esse não é o compositor? Avise-nos.
Contribuição: kassio \o/ Correções: Deilson , kassio \o/ e mais 2 »
Exibir acordes »
publicidade
fechar