Não Haverá Limites

CTMDT

 CTMDT Compositor: Wesley Xavier/Saulo Alves/Priscila Silva/João Pedro Brito/Marine de Almeida
Tom: G
		
Intro:

E|--12---12p10-10--------10-----------------|
B|---------------12-10-12--12-10-12-10------|
G|-9--9--------------------------------11-9-|    (7x)
D|------------------------------------------|
A|------------------------------------------|
E|------------------------------------------|



E|------------------------------------------|
B|-13-12-------12---------------------------|
G|-------12-14----12------------------------|
D|-------------------14---------------------|
A|------------------------------------------|
E|------------------------------------------|


 Em7                  D/F#     C9
posso ver o autor da vida
                         Am7       D/F#   Em7
escrevendo a história de uma geração
                 D/F#
levantando seu exército
          Am7          C9         D/F#
para cumprir o desejo do seu coração


Riff 1:
     * *   *   *   *

E|------------------------------------|
B|------------------------10/12-------|
G|-9-9-9-9-9-9-9-9-9-9h12-------------|  (3x)
D|------------------------------------|
A|------------------------------------|
E|------------------------------------|


      * *   * * *    *    *     *    *

E|----------------12---10------------------|
B|---------------------------12---10-------|
G|--9-9-9-9-9-9-9----9----9-----9----9-12--|
D|-----------------------------------------|
A|-----------------------------------------|
E|-----------------------------------------|


     * *   *   *   *

E|------------------------------------|
B|------------------------10/12--12~~-|
G|-9-9-9-9-9-9-9-9-9-9h12--------12~~-|
D|------------------------------------|
A|------------------------------------|
E|------------------------------------|


           Am7    Am7/G
começa em mim Senhor
          Em7     D9/F#
começa em mim Senhor
       Am7      C9      G     D/F#
a geração que vive pelo teu amor
          Am7     Am7/G
começa em mim Senhor
          Em7    D9/F#
começa em mim Senhor
      Am7      C9        G     D/F#
a geração que vive pelo Teu amor

Riff:

E|---------------------------------------|
B|--12---------------12------------------|
G|-----12---------------12---------------|
D|--------14-12-10-9-------12~~----------|
A|---------------------------------------|
E|---------------------------------------|



E|---------------------------------------|
B|--12----------------12-13-10~~---------|
G|-----12----------12--------------------|
D|--------14-12-14-----------------------|
A|---------------------------------------|
E|---------------------------------------|


Refrão:
       C9   D4/C       Em7
juntos levaremos tua luz
     C9   D4/C      Em7    D/F#
e levantaremos nossa voz
        C9  D4/C    Em7     D/F#
juntos viveremos como Jesus
        C9      Em7        D4  D9
e não haverá limites pra nós

Riff 2:


E|-------------------------------------------------|
B|-------------------------------------------------|
G|-------------------------------------------------|
D|----5-4---------5---5-5-------4--------2---5-5---|
A|--5-----7-5-7-7---7-7-7---5-5---5--3-3---3-3-3---|
E|-------------------------------------------------|



E|-------------------------------------------------|
B|-------------------------------------------------|
G|-------------------------------------------------|
D|--------------5-4---------5--5-5-----------------|
A|------3-----5-----7-5-7-7--7-7-7-----------------|
E|--5-5---5----------------------------------------|


 Em7                  D/F#     C9
posso ver o autor da vida
                         Am7       D/F#   Em7
escrevendo a história de uma geração
                 D/F#  G
levantando seu exér-cito
          Am7           C9         D4   D9
para cumprir o desejo do seu coração

           C9    Am7
começa em mim Senhor
          Em7     D/F#
começa em mim Senhor
       Am7      C9      G     D/F#
a geração que vive pelo teu amor
          C9     D9
começa em mim Senhor
          Em7    D/F#
começa em mim Senhor
      Am7      C9        G     D/F#
a geração que vive pelo Teu amor

Riff:

E|---------------------------------------|
B|--12---------------12------------------|
G|-----12---------------12---------------|
D|--------14-12-10-9-------12~~----------|
A|---------------------------------------|
E|---------------------------------------|



E|---------------------------------------|
B|--12----------------12-13-10~~---------|
G|-----12----------12--------------------|
D|--------14-12-14-----------------------|
A|---------------------------------------|
E|---------------------------------------|



E|-------------|-10---|
B|---12--------|-10---|
G|---12--(7x)--|------|
D|-------------|------|
A|-------------|------|
E|-------------|------|


Refrão:
        C9   D4/C       Em7
juntos levaremos tua luz
     C9   D4/C      Em7    D/F#
e levantaremos nossa voz              (2x)
        C9   D4/C      Em7   D/F#
juntos viveremos como Jesus
        C9      Em7        D4  D9
e não haverá limites pra nós

Solo: C D Em D/F#  C D Em D/F#


E|-------------------------------------------------|
B|-----13-12-10----13-12-8-----13-12-10------------|
G|-------------------------------------------------|
D|-/12---------/12---------/12---------------------|
A|-------------------------------------------------|
E|-------------------------------------------------|



E|-------------------------------------------------|
B|------8-7----------------------------------------|
G|----7-----7---9-7-----7-----7-9-5~~--------------|
D|--7---------7-----7-9---9-7----------------------|
A|-------------------------------------------------|
E|-------------------------------------------------|



E|-------------------------------------------------|
B|------13-15b17r15-13-15-15-13-12-13p12-----------|
G|---------------------------------------14~~------|
D|--/12--------------------------------------------|
A|-------------------------------------------------|
E|-------------------------------------------------|


         Am7
não olharemos pra trás
          Em7         D9
não retrocederemos mais
         C9       Am7      G       D/F#
vivemos em santidade pelo poder de Deus
           Am7
não olharemos pra trás
          Em7        D9
não retrocederemos mais
         C9      Am7       G      D/F#
vivemos em santidade  por amor à Deus

         C9
não olharemos pra trás
         Em7        D/F#
não retrocederemos mais
         Am7                 G      D/F#
vivemos em santidade pelo poder de Deus
         C9          D9
não olharemos pra trás
          Em7       D/F#
não retrocederemos mais
        Am7       C9         G      D/F#
vivemos em santidade  por amor à Deus


        C9
juntos levaremos tua luz
      C9
e levantaremos nossa voz
        C9
juntos viveremos como Jesus
        C9      Em7        D4  D9
e não haverá limites pra nós

        C9  D     Em  Bm
juntos levaremos tua luz
     C9    D     Em    D/F#  (G A)
e levantaremos nossa voz
        C9  D     Em     Bm
juntos viveremos como Jesus
        C9      Em7        D4  D9
e não haverá limites pra nós
        (C B C)
e não haverá
        (E D E)
e não haverá
        (C B C)
e não haverá
        (E G E)
e não haverá

        C      Em        D   Bm
e não haverá limites pra nós
        C      Em        D   Bm
e não haverá limites pra nós
        C      G        D     Em
e não haverá limites pra nós

Final:


E|-------------------------------------------------|
B|-------------------------------------------------|
G|------14---11------------------------------------|
D|--/12----9---------------------------------------|
A|-------------------------------------------------|
E|--------------2-3-2-0~~~~------------------------|
Texto Colunas
Alterar tom ½ tom ½ tom
afinação acordes na letra esconder tabs mais »

Comentários 0

Composição: Sabe quem é o compositor? Envie pra gente. Contribuição: kascampos Correções: israel , Luis e mais 6 »
  1. Domingo de Manhã - Marcos e Belutti Manteve-se 100.616 exibições
  2. Logo Eu - Jorge e Mateus Manteve-se 48.022 exibições
  3. Pra Você - Onze:20 Manteve-se 46.298 exibições
  4. Counting Stars - OneRepublic Manteve-se 42.181 exibições
  5. Aonde Quer Que Eu Vá - Os Paralamas do Sucesso Manteve-se 37.792 exibições
  6. Recaídas - Henrique e Juliano Manteve-se 35.752 exibições
  7. Só Os Loucos Sabem - Charlie Brown Jr. Manteve-se 32.749 exibições
  8. Até Você Voltar - Henrique e Juliano Manteve-se 32.398 exibições
  9. Pais e Filhos - Legião Urbana Manteve-se 30.594 exibições
  10. Happy - Pharrell Williams Manteve-se 28.255 exibições
  1. Jorge e Mateus- Manteve-se 269.863 exibições
  2. Legião Urbana- Manteve-se 213.157 exibições
  3. Charlie Brown Jr.- Manteve-se 160.479 exibições
  4. Henrique e Juliano- Manteve-se 141.252 exibições
  5. Marcos e Belutti- Manteve-se 123.270 exibições
  6. Fernandinho- Manteve-se 119.249 exibições
  7. Luan Santana- Manteve-se 112.704 exibições
  8. Bruno e Marrone- Manteve-se 110.163 exibições
  9. Victor e Leo- Manteve-se 98.683 exibições
  10. Thalles Roberto- Manteve-se 94.727 exibições
Exibir acordes »

Cifras e tabs

Fórum Cifra Club

Aprenda

Cifra Club News

Mais Serviços Cifra Club ID

Studio Sol

©1996 - 2014 Cifra Club · o primeiro, maior e mais acessado do Brasil · 337 mil músicas · 6.2 milhões pessoas cadastradas

publicidade
fechar