Não Haverá Limites

CTMDT

 CTMDT Compositor: Wesley Xavier/Saulo Alves/Priscila Silva/João Pedro Brito/Marine de Almeida
Tom: G
		
Intro:

E|--12----12p10----10------------------------------|
B|-----10-------10----12-10-12/15\12-10-12-10------|
G|--------------------------------------------11-9-|    (7x)
D|-------------------------------------------------|
A|-------------------------------------------------|
E|-------------------------------------------------|



E|--12----12p10----10------------------------------|
B|-----10-------10---12-10-12h13p12-------12-------|
G|----------------------------------12-14----------|
D|-------------------------------------------12-14-|
A|-------------------------------------------------|
E|-------------------------------------------------|


 Em                   D9     C9
posso ver o autor da vida
                         Am7      D   D4  D  D9   Em
escrevendo a história de uma geração
                 D9
levantando seu exército
          C9           Am7         D
para cumprir o desejo do seu coração


Riff 1:
     * *   *   *   *

E|------------------------------------|
B|------------------------10/12-------|
G|-9-9-9-9-9-9-9-9-9-9h12-------------|  (3x)
D|------------------------------------|
A|------------------------------------|
E|------------------------------------|


      * *   * * *    *    *     *    *

E|----------------12---10------------------|
B|---------------------------12---10-------|
G|--9-9-9-9-9-9-9----9----9-----9----9-12--|
D|-----------------------------------------|
A|-----------------------------------------|
E|-----------------------------------------|


     * *   *   *   *

E|------------------------------------|
B|------------------------10/12--12~~-|
G|-9-9-9-9-9-9-9-9-9-9h12--------12~~-|
D|------------------------------------|
A|------------------------------------|
E|------------------------------------|


           C9    Am7
começa em mim Senhor
          Em7     D/F#
começa em mim Senhor
       C9       Em7      G     D/F#
a geração que vive pelo teu amor
          C9     D9
começa em mim Senhor
          Em7    D/F#
começa em mim Senhor
      C9      D9        G     D
a geração que vive pelo Teu amor

Riff:

E|---------------------------------------|
B|--12---------------12------------------|
G|-----12---------------12---------------|
D|--------14-12-10-9-------12~~----------|
A|---------------------------------------|
E|---------------------------------------|



E|---------------------------------------|
B|--12----------------12-13-10~~---------|
G|-----12----------12--------------------|
D|--------14-12-14-----------------------|
A|---------------------------------------|
E|---------------------------------------|


Refrão:
        C9       Em
juntos levaremos tua luz
     C9         Em    D/F#
e levantaremos nossa voz
        C9       Em     D
juntos viveremos como Jesus
        C9      Em        D
e não haverá limites pra nós

Riff 2:


E|-------------------------------------------------|
B|-------------------------------------------------|
G|-------------------------------------------------|
D|----5-4---------5---5-5-------4--------2---5-5---|
A|--5-----7-5-7-7---7-7-7---5-5---5--3-3---3-3-3---|
E|-------------------------------------------------|



E|-------------------------------------------------|
B|-------------------------------------------------|
G|-------------------------------------------------|
D|--------------5-4---------5--5-5-----------------|
A|------3-----5-----7-5-7-7--7-7-7-----------------|
E|--5-5---5----------------------------------------|


 Em                   D9     C9
posso ver o autor da vida
                         Am7      D   D4  D  D9   Em
escrevendo a história de uma geração
                 D/F#  G
levantando seu exér-cito
          C9           Am7         D
para cumprir o desejo do seu coração

           C9    Am7
começa em mim Senhor
          Em7     D/F#
começa em mim Senhor
       C9       Em7      G     D/F#
a geração que vive pelo teu amor
          C9     D9
começa em mim Senhor
          Em7    D/F#
começa em mim Senhor
      C9      D9        G     D
a geração que vive pelo Teu amor

Riff:

E|---------------------------------------|
B|--12---------------12------------------|
G|-----12---------------12---------------|
D|--------14-12-10-9-------12~~----------|
A|---------------------------------------|
E|---------------------------------------|



E|---------------------------------------|
B|--12----------------12-13-10~~---------|
G|-----12----------12--------------------|
D|--------14-12-14-----------------------|
A|---------------------------------------|
E|---------------------------------------|



E|-------------|-10---|
B|---12--------|-10---|
G|---12--(7x)--|------|
D|-------------|------|
A|-------------|------|
E|-------------|------|


Refrão:
        C9   D    Em
juntos levaremos tua luz
     C9    D     Em    D/F#
e levantaremos nossa voz              (2x)
        C9   D    Em     Bm
juntos viveremos como Jesus
        C9      Em        D
e não haverá limites pra nós

Solo: C D Em D/F#  C D Em D/F#


E|-------------------------------------------------|
B|-----13-12-10----13-12-8-----13-12-10------------|
G|-------------------------------------------------|
D|-/12---------/12---------/12---------------------|
A|-------------------------------------------------|
E|-------------------------------------------------|



E|-------------------------------------------------|
B|------8-7----------------------------------------|
G|----7-----7---9-7-----7-----7-9-5~~--------------|
D|--7---------7-----7-9---9-7----------------------|
A|-------------------------------------------------|
E|-------------------------------------------------|



E|-------------------------------------------------|
B|------13-15b17r15-13-15-15-13-12-13p12-----------|
G|---------------------------------------14~~------|
D|--/12--------------------------------------------|
A|-------------------------------------------------|
E|-------------------------------------------------|


         Am7
não olharemos pra trás
          Em
não retrocederemos mais
         C                    G     D
vivemos em santidade pelo poder de Deus
           Am7
não olharemos pra trás
          Em        D
não retrocederemos mais
         C                G      D
vivemos em santidade  por amor à Deus

         C
não olharemos pra trás
          Em        D9
não retrocederemos mais
         C                   G      D
vivemos em santidade pelo poder de Deus
         C          Am7
não olharemos pra trás
          Em        D/F#
não retrocederemos mais
        Am       C         G      D
vivemos em santidade  por amor à Deus

        C
Juntos Levaremos ...

        C9   D    Em   Bm
juntos levaremos tua luz
     C9    D    Em    D/F#
e levantaremos nossa voz
        C9   D    Em     Bm
juntos viveremos como Jesus
        Am      Em        D
e não haverá limites pra nós

        C9  D     Em  Bm
juntos levaremos tua luz
     C9    D     Em    D/F#
e levantaremos nossa voz
        C9  D     Em     Bm
juntos viveremos como Jesus
        (C B C)
e não haverá
        (E D E)
e não haverá
        (C B C)
e não haverá
        (E G E)
e não haverá

        C      Em        D   Bm
e não haverá limites pra nós
        C      Em        D   Bm
e não haverá limites pra nós
        C      Em        D     Em
e não haverá limites pra nós

Final:


E|-------------------------------------------------|
B|-------------------------------------------------|
G|------14---11------------------------------------|
D|--/12----9---------------------------------------|
A|-------------------------------------------------|
E|--------------2-3-2-0~~~~------------------------|
Texto Colunas
Alterar tom ½ tom ½ tom
afinação acordes na letra esconder tabs mais »

Comentários (0)

Composição: Sabe quem é o compositor? Envie pra gente. Contribuição: kascampos Correções: pedrojaraujoo , gordofeliz e mais 4 »
  1. Tudo Que Você Quiser - Luan Santana Manteve-se 5.417 exibições
  2. Lepo Lepo - Psirico Manteve-se 3.901 exibições
  3. Mozão - Lucas Lucco Manteve-se 3.749 exibições
  4. Logo Eu - Jorge e Mateus Manteve-se 3.341 exibições
  5. Gaveta - Fernando e Sorocaba Manteve-se 2.999 exibições
  6. Só Os Loucos Sabem - Charlie Brown Jr. Manteve-se 2.698 exibições
  7. Pra Você - Onze:20 Manteve-se 2.391 exibições
  8. Tempo Perdido - Legião Urbana Manteve-se 2.189 exibições
  9. Fui Fiel - Gusttavo Lima Manteve-se 2.019 exibições
  10. Na Linha do Tempo - Victor e Leo Manteve-se 1.925 exibições
  1. Jorge e Mateus- Manteve-se 20.025 exibições
  2. Legião Urbana- Manteve-se 17.810 exibições
  3. Luan Santana- Manteve-se 15.901 exibições
  4. Charlie Brown Jr.- Manteve-se 15.521 exibições
  5. Fernandinho- Manteve-se 13.364 exibições
  6. Thalles Roberto- Manteve-se 10.046 exibições
  7. Aline Barros- Manteve-se 9.582 exibições
  8. Católicas- Manteve-se 9.431 exibições
  9. Victor e Leo- Manteve-se 9.367 exibições
  10. Gusttavo Lima- Manteve-se 8.996 exibições
Exibir acordes »

Cifras e tabs

Fórum Cifra Club

Aprenda

Cifra Club News

Mais Serviços Cifra Club ID

Studio Sol

©1996 - 2014 Cifra Club · o primeiro, maior e mais acessado do Brasil · 329 mil músicas · 5.9 milhões pessoas cadastradas

publicidade
fechar