Ressuscita

Davi Passamani

 Davi Passamani
Tom: C
		

E|------------------------------------------|
B|------------------------------------------|
G|-------7-9/--11----11-9----9--------------|
D|---7-9------------------11----------------|
A|-9----------------------------------------|
E|------------------------------------------|



E|------------------------------------------|
B|------------------------------------------|
G|-------9-11--12--11--9--------------------|
D|-9--12------------------------------------|
A|------------------------------------------|
E|------------------------------------------|



E|------------------------------------------|
B|------10----------------------------------|
G|-7--9----9/11--16t--17t--19t--------------|
D|------------------------------------------|
A|------------------------------------------|
E|------------------------------------------|



E|------------------------------------------|
B|--------17--19-20-19--17----17--22--17/19-|
G|-16--19------------------19---------------|
D|------------------------------------------|
A|------------------------------------------|
E|------------------------------------------|



E|------------------------------------------|
B|-19-17-------------17-19-20-19-17-15/16---|
G|-------19-16-16-19------------------------|
D|------------------------------------------|
A|------------------------------------------|
E|------------------------------------------|



G/B
O que posso ver,
    A9/C#           D D4 D D9
Senão um vale de ossos secos
G/B
O que posso dizer,
    A9/C#           D D4 D D9
Se já se foi a esperança?

         Bm             G
Nossa vergonha, está exposta,
	  D              A9/C#
Debaixo do sol, Há muito tempo.
            Bm	          G     	        D     A9/C#
Se foi a Alegria, não há Espírito, não há Palavra

          Em    	         G
Filho do Homem, mude a história,
          D
Com tua boca...
      A9/C#
Profetiza!!!
          Em  	      C9	    Bm      A A4 A
Volte Alegria, Venha o Espírito, Haja Palavra!!!

       D D9
Ressuscita...
D D4 D D9          D/F#  G
Oh terra que estava morta
	    D/F# Em
Oh Vale de ossos secos...
Em          A A4   A
Volta a respirar
	D D9
Posso ouvir,
D D4 D D9       D/F#    G
O som do avivamento
	   D/F#      Em
A Morte tornando vida
A A4  A
Ressuscita!

Modulação: Dm

Dm
Vida...
               C9          Bb9
Eu profetizo sobre ti a vida
                 F  G  Bb9
Receba sobre ti  a vida
 C9      D D9 D D9
Vida de Deus!

Dm
Vida...
               C9          Bb9
Eu profetizo sobre ti a vida
                   F G   Bb9
Receba sobre ti  a vida
 C9       D D4 D D9 D
Vida de Deus!

       D D9
Ressuscita...
 D D4 D D9         D/F#   G
Oh terra que estava morta
	    D/F# Em
Oh Vale de ossos secos...
Em          A A4  A
Volta a respirar
	D D9
Posso ouvir,
D D4 D D9     D/F#  G
O som do avivamento
	   D/F# Em
A Morte tornando vida
Em           A  A4 A
Ressuscita!
12.447 exibições

Comentários 2

  • Rosivan Rosivan: Postado em 04/03/2014 21:37

    canta muito bem pra Jesus

  • tom.morais tom.morais: Postado em 28/10/2012 21:48

    lindo louvor

Composição: Sabe quem é o compositor? Envie pra gente. Contribuição: rafaeldouglas Correções: aryyprospero »
Consegui tocarAinda não conseguiram tocar essa música. Seja o primeiro!
    Não consegui tocar
    Exibir acordes »
    publicidade
    fechar