White Ladder

David Gray

 David Gray
Tom: A
		
#This file is the author's own work and represents their interpretation of the#
#Song. You may only use this file for private study, scholarship, or research.#


Transcribed by: Spoon
Email: S*

-Normal tuning-
[Chord formations]

[C#maj7] [Badd11] [Bmadd11] [Aadd9] [Amadd9]  [G6]  [F#7add11]

|---0---|----0---|----0----|---0---|----0---|---0---|----0----|
|---0---|----0---|----0----|---0---|----0---|---0---|----0----|
|---6---|----6---|----7----|---6---|----5---|---4---|----3----|
|---6---|----9---|----9----|---7---|----7---|---5---|----4----|
|---4---|----9---|----X----|---7---|----X---|---5---|----4----|
|---X---|----7---|----7----|---5---|----5---|---3---|----2----|


   [E]     [E7]    [G]     [A]

|---0---|---0---|---3---|---5---|
|---0---|---3---|---3---|---5---|
|---1---|---1---|---4---|---6---|
|---2---|---0---|---5---|---7---|
|---2---|---2---|---5---|---7---|
|---0---|---0---|---3---|---5---|



White ladder, water and wine,
Forever, crying oh time
Don't wanna, feel tonight
There's no rhyme or reason to life, this sweet life.

White River thunders and war,
How many, times oh no,
Don't wanna feel no more.
There's no rhyme or reason in love, this sweet sweet love.

To the nigh another body, to the night another name,
To the night another valentine burning flame,
To the nigh another body, to the night another name,
To the night another valentine burning flame.

Tall order tremble and sigh,
Forever, crying oh my,
I don't wanna feel tonight.
There's no rhyme or reason, in love this sweet sweet love.

To the nigh another body, to the night another name,
To the night another valentine burning flame,
To the nigh another body, to the night another name,
To the night another valentine burning flame,
To the nigh another body, to the night another name,
To the night another valentine burning flame.

White ladder water and wine don't wanna feel tonight.
425 exibições

Comentários 0

Composição: José Torregrosa
Esse não é o compositor? Avise-nos.
Consegui tocarAinda não conseguiram tocar essa música. Seja o primeiro!
    Não consegui tocar
    Exibir acordes »
    publicidade
    fechar