Viva Las Vegas

Dead Kennedys

 Dead Kennedys
Intro
]-------|-------|-----------------------------------|
]-------|-------|-----------------------------------| Do this until the Verse
]-------|-------|-0-0------0-0-----0-0------0-0-----|
]-0-1-2-|-0-1-2-|-----2p0-2----0-2-----2p0-2----0-2-|

Verse
]-------------------|
]---4---4---4---4---| Do unitl the Chorus
]-------------------|
]-2---2---2---2-----|

Chorus
]-----------------------|
]-----------------------|
]-5---5-----------------|
]---5---5---5--0--5--0--|

2nd Verse

]-------------------------------|
]---4--4--4--4------------------|
]--------------2-2-2-2--7-7-7-7-|
]-2--2--2--2--------------------|

2nd Chorus

]------------------------|
]------------------------|
]-5--5---7--7------------|
]---5--5--7--7--5-0-5-0--|

Comentários 0

Composição: Jello Biafra / Jesse Rankins / P. Buck
Esse não é o compositor? Avise-nos.
publicidade
fechar