Enjoy the silence

Depeche Mode

 Depeche Mode
Tom: C#
		
RIFF 1


 (Cm  D#m)
|-----------------------------------|--------------------------------|
|-----------------------------------|--------------------------------|
|---5---7---5--------5---7---5------|----------5---------------5-----|
|---------------8----------------8--|--6---5-------8---6---5-------8-|
|-6---6---6---6----6---6---6---6----|--------6---6-----------6---6---|
|-----------------------------------|-8--8-----------8---8-----------|


RIFF 2


|---------------------------------|
|---------------------------------|
|---5---7---8---------------------|
|--------------8----8---5---8---5-|
|-6---6---6--6----6---6---6---6---|
|---------------------------------|


Intro: RIFF 1

Cm
Words like violence
D#m
Break the silence
G#
Come crashing in
Into my little world

Cm
Painful to me
D#m
Pierce right through me
G#
Can't you understand
Oh my little girl

Fm
All I ever wanted
G#
All I ever needed
   Cm
Is here in my arms
Fm             G#
Words are very unnecessary
 Cm           B
They can only do harm

RIFF 1

Cm
Vows are spoken
D#m
To be broken
G#
Feelings are intense
Words are trivial

Cm
Pleasures remain
D#m
So does the pain
G#
Words are meaningless
And forgettable

Fm
All I ever wanted
G#
All I ever needed
   Cm
Is here in my arms
Fm             G#
Words are very unnecessary
 Cm           B
They can only do harm

RIFF 2 (2x)
RIFF 1

Fm
All I ever wanted
G#
All I ever needed
   Cm
Is here in my arms
Fm             G#
Words are very unnecessary
 Cm           B
They can only do harm

Fm
All I ever wanted
G#
All I ever needed
   Cm
Is here in my arms
Fm             G#
Words are very unnecessary
 Cm           B
They can only do harm

RIFF 2 (8x fade out)

Enjoy the silence...

Solo da versão ao vivo (Devotional)


|---------------------------------------------|
|---------------------------------------------|
|------------------8--------------------------|
|-8-10-10-10-10-10---10-8-10-10-10-10---------|
|-------------------------------------8-10----|
|------------------------------------------8--|

Comentários 2

  • rimc rimc: Postado em 22/11/2014 - 18:00

    Ficou legal mesmo! Se alterar pra -1/2 tom e colocar um capo na 1a casa fica ainda mais confortável pra tocar!

  • Flávia Flávia: Postado em 25/04/2013 20:50

    Muito bom! =)

Composição: Martin Gore / P. McCartney / Shea Taylor
Esse não é o compositor? Avise-nos.
Contribuição: fercopa
Exibir acordes »
publicidade
fechar