Tom: C
		
(intro) G  Em  C  Am


E |-------------------------------------------------------------------
B |---------10>12^--10>12--10-----10----------10--12--10----10-------
G |-7>9--12--------------------12-------9--12-------------12----12--9-
D |-------------------------------------------------------------------
A |-------------------------------------------------------------------
E |-------------------------------------------------------------------



E |----10-10--12-10----------------8----------------------------------
B |-10--------------10----8--10--8----12--10--8--10--8----------------
G |-------------------------------------------------------------------
D |-------------------------------------------------------------------
A |-------------------------------------------------------------------
E |-------------------------------------------------------------------


(intro - alternative on guitar)


--10-10--10-10-10-10---7-7--7-7-7-7--|
--12-12--12-12-12-12---8-8--8-8-8-8--|
--12-12--12-12-12-12---7-7--7-7-7-7--|
--12-12--12-12-12-12---9-9--9-9-9-9--|
--10-10--10-10-10-10---7-7--7-7-7-7--|
-----------------------7-7--7-7-7-7--|



--8--8---8--8--8--8----10-10--10-10-10-10--|
--8--8---8--8--8--8----10-10--10-10-10-10--|
--9--9---9--9--9--9----11-11--11-11-11-11--|
--10-10--10-10-10-10---12-12--12-12-12-12--|
--10-10--10-10-10-10---12-12--12-12-12-12--|
--8--8---8--8--8--8----10-10--10-10-10-10--|


(verse)

-3-3--3-3---3-3-3-3-3-------------------------
-3-3--3-3---3-3-3-3-3---1-1---1-1---1-1-1-1-1-
-0-0--0-0---0-0-0-0-0---0-0---0-0---2-2-2-2-2-
-0-0--0-0---0-0-0-0-0---2-2---0-0---2-2-2-2-2-
2----0----2-2-2-2-2-2-3-3-3-2-2-2-0-0-0-0-0-0-
3----2----0-----------------------------------


(G       Em7        C        Am)
We could let this love be the fading sky
We could drift all night until the new sun rise
Pass me a drink or maybe two
One for me and one for you
And we'll be

G     F     C
Free, Free
Free, Free

Here comes corner winds and the changing' tide
We better drop them sails and get inside
When will the weather ever let us go
I guess we'll have to wait until the trade winds blow
When we'll be

Free, Free
Free, Free

G               Em
There's nothing in between
C           D
What we are, what we see
G               Em
There's nothing in between
C             G/B         A
What we are, what we see, what we are

We are just

On a life boat sailing' home
With our drunken hearts and our tired bones
Well I just take one last look around
Yeah an' every place feels like a familiar town
And now we're

G     F     C
Free, Free
And don't you wanna be
Free
From time to time a little

Free
Hey now now
Free
I know you know your
Free
Feels so good to be
Free
mmm mmm mmm
Texto Colunas
Alterar tom ½ tom ½ tom
afinação acordes na letra esconder tabs mais »

Comentários 1

  • andreo.naymayer andreo.naymayer: Postado em 07/02/2014 00:22

    tinha q ter aula meio complicado... mas vai

Composição: Altay Veloso / Donavon Frankenreiter / Jack Johnson / Wright
Esse não é o compositor? Avise-nos.
Contribuição: oliver Correções: thiagomusico e mais 1 »
  1. Domingo de Manhã - Marcos e Belutti Manteve-se 101.185 exibições
  2. Logo Eu - Jorge e Mateus Manteve-se 47.672 exibições
  3. Não Vai Voltar - Onze:20 Manteve-se 40.815 exibições
  4. Maus Bocados - Cristiano Araújo Manteve-se 39.771 exibições
  5. Pra Você - Onze:20 Manteve-se 39.760 exibições
  6. Recaídas - Henrique e Juliano Manteve-se 38.818 exibições
  7. É Preciso Saber Viver - Titãs Manteve-se 34.345 exibições
  8. Aonde Quer Que Eu Vá - Os Paralamas do Sucesso Manteve-se 33.730 exibições
  9. Só Os Loucos Sabem - Charlie Brown Jr. Manteve-se 32.572 exibições
  10. Pais e Filhos - Legião Urbana Manteve-se 30.673 exibições
  1. Jorge e Mateus- Manteve-se 288.852 exibições
  2. Legião Urbana- Manteve-se 218.605 exibições
  3. Charlie Brown Jr.- Manteve-se 154.736 exibições
  4. Fernandinho- Manteve-se 125.080 exibições
  5. Marcos e Belutti- Manteve-se 124.867 exibições
  6. Henrique e Juliano- Manteve-se 118.090 exibições
  7. Bruno e Marrone- Manteve-se 108.966 exibições
  8. Onze:20- Manteve-se 104.107 exibições
  9. Luan Santana- Manteve-se 94.621 exibições
  10. Thalles Roberto- Manteve-se 93.884 exibições
Exibir acordes »

Cifras e tabs

Fórum Cifra Club

Aprenda

Cifra Club News

Mais Serviços Cifra Club ID

Studio Sol

©1996 - 2014 Cifra Club · o primeiro, maior e mais acessado do Brasil · 336 mil músicas · 6.2 milhões pessoas cadastradas

publicidade
fechar