Tom: C
		
Intro: 


     G           Em
E|-7-7-7-7-7--7-7-7-7-7----------------------------------------------
B|-8-8-8-8-8--8-8-8-8-8----------------------------------------------
G|-7-7-7-7-7--9-9-9-9-9----------------------------------------------
D|-9-9-9-9-9--9-9-9-9-9----------------------------------------------
A|-------------------------------------------------------------------
E|-------------------------------------------------------------------



    C                Am
E|-8--8--8--8--8---5-5-5-5-5-----------------------------------------
B|-8--8--8--8--8---5-5-5-5-5-----------------------------------------
G|-9--9--9--9--9---5-5-5-5-5-----------------------------------------
D|-10-10-10-10-10--7-7-7-7-7-----------------------------------------
A|-------------------------------------------------------------------
E|-------------------------------------------------------------------



G                         Em7
We could let this love be the fading sky
C                            Am
We could drift all night until the new sun rise
G                 Em7
Pass me a drink or maybe two
C             Am
One for me and one for you

And we'll be

G   F7+  C
Free, Free
G   F7+  C
Free, Free

G                         Em7
Here comes corner winds and the changing' tide
C                            Am
We better drop them sails and get inside
G                    Em7
When will the weather ever let us go
C                                  Am
I guess we'll have to wait until the trade winds blow
(Não toca, deixa o Lá menor soar) 
When we'll be

G   F7+  C
Free, Free
G   F7+  C
Free, Free

G               Em
There's nothing in between
C           D
What we are, what we see
G               Em
There's nothing in between
C             G/B         A
What we are, what we see, what we are

(Não toca, deixa o Lá soar)


E|-15\12--12-10\1----------------------------------------------------
B|-15\12--12---------------------------------------------------------
G|-------------------------------------------------------------------
D|-------------------------------------------------------------------
A|-------------------------------------------------------------------
E|-------------------------------------------------------------------


We are just

G                    Em7
On a life boat sailing' home
C                            Am
With our drunken hearts and our tired bones
G                    Em7
Well I just take one last look around
C                            Am
Yeah an' every place feels like a familiar town

And now we're

G   F7+  C
Free, Free

And don't you wanna be
G   F7+  C
Free

From time to time a little
G   F7+  C
Free

Hey now now
G   F7+  C
Free

I know you know your
G   F7+  C
Free

Feels so good to be
G   F7+  C
Free

mmm mmm mmm

Comentários 1

  • andreo.naymayer andreo.naymayer: Postado em 07/02/2014 00:22

    tinha q ter aula meio complicado... mas vai

Composição: Altay Veloso / Donavon Frankenreiter / Jack Johnson / Wright
Esse não é o compositor? Avise-nos.
Contribuição: oliver Correções: Mateus Henrique e mais 2 »
Exibir acordes »
publicidade
fechar