Olhando Pra Você

Drive

 Drive
Tom: B
		
(intro)


   B         F#        G#        E
E |-2-2-----|-2-2-----|-4-4-----|-0-0-----|
B |-4-4-4-4-|-2-2-2-2-|-4-4-4-4-|-0-0-0-0-|
G |-4-------|-3-------|-4-------|-1-------|      (2x)
D |-4-------|-4-------|-6-------|-2-------|
A |-2-------|-4-------|-6-------|-2-------|
E |---------|-2-------|-4-------|-0--VETOR|


B          F#               G#m
  Perco tempo e faço coisas que voce
                E
  parece nem notar
B              F#                  G#m
  Tantos planos e outra vez eu vou embora
                    E
  Sem saber o que falar

C#m          E    F#
  Talvez eu seja so um novo amigo
G                F#   E          Em
  Talvez eu queira te levar comigo
C#m            E               F#
  Pra bem longe daqui onde nem o ceu seja o limite


B       B/A     E Em           B
  Esperei o tempo falar por mim
              F#         G#m
  Coisas que eu não sei dizer
                E   Em
  Olhando pra você

B           F#                        G#m
  Sei que vejo você de um jeito que ninguém
                E
  consegue enxergar
B              F#                    G#m
  Tantos planos e outra vez eu vou embora
                      E
  Sem saber o que falar

C#m          E    F#
  Talvez eu seja so um novo amigo
 G            F#       E             Em
  Talvez eu queira te levar comigo
C#m         E                    F#                 B
  Pra bem longe daqui onde nem o ceu seja o limite


(base solo) A E G A B
E |----------------------------------------|---------------------------------------|
G |----------------------------------------|---------------------------------------|
B |-------7b9--7b9b7----7--7h9--7----------|------7b9--7b9b7----7--7h9--7----------|
D |--7h10------------10------------10--7---|-7h10------------10------------10--7---|
A |----------------------------------------|---------------------------------------|
E |----------------------------------------|---------------------------------------|



e|13h12----13h12-----13h12--15---13h12----15--13-12----15b-----|
G |------13-------13------13-----------13----------------------|
B |------------------------------------------------------------|
D |------------------------------------------------------------|
A |------------------------------------------------------------|
E |------------------------------------------------------------|


B       B/A     E Em           B
  Esperei o tempo falar por mim
              F#         G#m
  Coisas que eu não sei dizer
                E   Em
  Olhando pra você
418.554 exibições

Comentários 4

  • jaqquue jaqquue: Postado em 29/08/2012 09:59

    alguem sabe o ritmo??

    • limarowski limarowski: Postado em 24/11/2012 20:01

      Amigão,é só você ver o video da música.mas quem manda no ritmo é você!!
      Só sentir a batida!!

  • thyagopaixao thyagopaixao: Postado em 30/04/2012 00:10

    o sifra era pra botar uma video aula

  • kaduh09 kaduh09: Postado em 28/08/2011 21:57

    muito legal! PaaKaas

Composição: Luiz Go Go Boy
Esse não é o compositor? Avise-nos.
Contribuição: <<*LaiS´GouLaRt*>> Correções: vitov_lp , kanalhacn e mais 10 »
Exibir acordes »
publicidade
fechar