Lips Like Sugar

Echo & The Bunnymen

 Echo & The Bunnymen Compositor: Echo / The Bunnymen
Tom: E
		
Intro/verse chords: B B7 (3 measures)
Prechorus chord: B
Chorus chords: A (4 measures) B (4 measures)

Intro/before each verse(between "()" = piano part): 

   B         B7 
E|----------------------(14)-|
B|------------------(12)-----|
G|---------------(11)--------|
D|-2-1-2-1---4---------------|
A|---------2-----------------|
E|---------------------------|


   B         B7 
E|----------------------(12)-|
B|------------------(12)-----|
G|---------------(11)--------|
D|-2-1-2-1-------------------|
A|---------2-0---------------|
E|---------------------------|


   B         B7 
E|----------------------(19)-|
B|------------------(12)-----|
G|---------------(11)--------|
D|-2-1-2-1---4---------------|
A|---------2-----------------|
E|---------------------------|


   B         B7 
E|-------------(14)-(16)-(17)-|
B|----------------------------|
G|----------------------------|
D|-2-1-2-1--------------------|
A|---------2-0----------------|
E|----------------------------|


VERSE (there are several variations throughout the verse,
       but they pretty much all use these same notes):              


   B                    B7         B                 B7  
E|--------------------------|    |-------------------------|
B|--------------------------|    |-------------------------|
G|-4--2-4--4--2-4-4-2-4-2-4-|    |-4--2-4--4--2-4-2--------|
D|--------------------------|(x3)|-------------------2-1---|
A|--------------------------|    |-----------------------2-|
E|--------------------------|    |-------------------------|


PRE-CHORUS:

   B
E|-------------------|    |--------------------------|
B|-10--9--7----------|    |-10--9--7-----------------|
G|-----------9--8----|(x2)|-----------9--8---8h9p8---|
D|-----------------9-|    |------------------------9-|
A|-------------------|    |--------------------------|
E|-------------------|    |--------------------------|


CHORUS(again, this is a little different every time,
        but the same notes are always used):

   A                           B   
E|-------------------------------------------------------|
B|-10-9--------------------------------------------------|
G|------9-8----------------------------------------------|
D|----------9-7--7-9-7--7-9-7--9--9--9--9-9--9-9-9-9-9-9-|
A|-------------------------------------------------------|
E|-------------------------------------------------------|


SOLO:

   E                             B
E|-------------------------------------------------------|
B|-4-5-7-4-5-7-4-5-7-4-5-7-4-5-4-------------------------|
G|-------------------------------4-4-4-4-4-4-4-4-4-4-4-4-|
D|-------------------------------------------------------|
A|-------------------------------------------------------|
E|-------------------------------------------------------|



   E                             B    
E|----------------------------------------------------------|
B|-4-5-7-4-5-7-4-5-7-4-5-7-4-5-5-10-10-10-10-10-10-10-10-9-7|
G|----------------------------------------------------------|
D|----------------------------------------------------------|
A|----------------------------------------------------------|
E|----------------------------------------------------------|



   E               B                        
E|-----------------------------------------------------|
B|---7-5--7-8-7-5~---------------------7-5--7-8-7-5~---|
G|-4---------------4-6-4--6-7-6-4----4---------------2~|
D|--------------------------------4~-------------------|
A|-----------------------------------------------------|
E|-----------------------------------------------------|


[VERSE]
B                    
She floats like a swan
B7
Grace on the water
B
Lips like sugar
B7
Lips like sugar
B
Just when you think you've caught her
B7
She glides across the water
B
She calls for you tonight
B7
To share this moonlight

[PRE-CHORUS]
B
You'll flow her river
B
She'll ask & you'll give her...

[CHORUS]
          A
Lips like sugar
      B
Sugar kisses
          A
Lips like sugar
      B
Sugar kisses

[VERSE]
B
She knows what you know
B7
I know what she's thinking
B
Sugar kisses, sugar kisses
B7
Just when you think she's yours
B
She's flown to other shores
B7
To laugh at how you break
B
And melt into this lake

[PRE-CHORUS]
B
You'll flow down her river
B
But you'll never give her...

[CHORUS]
          A
Lips like sugar
      B
Sugar kisses
          A
Lips like sugar
      B
Sugar kisses

[SOLO]
(E B) 3X

[VERSE]
B
She'll be my mirror
B7
Reflect what I am
B
Loose women
B7
The king of Siam
B
And my siamese twin
B7
Alone in the river
B
Mirror kisses, mirror kisses...

[CHORUS]
          A
Lips like sugar
      B
Sugar kisses
          A
Lips like sugar
      B
Sugar kisses
8.843 exibições

Comentários 0

Composição: Will Sergeant / Ian McCulloch / Les Pattinson / Pete de Freitas
Esse não é o compositor? Avise-nos.
Contribuição: Peruka
Consegui tocarAinda não conseguiram tocar essa música. Seja o primeiro!
    Não consegui tocar
    Exibir acordes »
    publicidade
    fechar