Arreia Cerveja

Edu e Maraial

 Edu e Maraial Compositor: Edu Luppa / Beto Cajú
Tom: G
		

(intro) G D C G D C D (solo)
E|-------------------------------------------|
B|---8-7-7-------7-8-------------------------|
G|------9-7-7-7-9-----------7-9-7~ -7-9-7----|
D|------------------10-10-10-------------10-9|
A|-10----------------------------------------|
E|-------------------------------------------|



E|-------------------------------------------|
B|--8-7-7-------7-8--------------------------|
G|-----9-7-7-7-9-----------------------------|
D|-----------------10-10-10-9-7--------------|
A|-------------------------------------------|
E|-------------------------------------------|



E|---10-7------------------------------------|
B|-12--8--8----------------------------------|
G|-------9--7--------------------------------|
D|---------9---7~ ---------------------------|
A|-----------10--9-7-------------------------|
E|------------------10-----------------------|


         G
Eu sou assim,
                          D
Passo a noite largado na rua
                           C
Doido virado de quina pra lua,
                             G     D
Tentando esquecer uma louca paixão

         G
Eu sou assim,
                           D
Apaixonado pelos bares da vida
                               C
Bebendo e chorando por essa bandida,
                 D             G
Que fez tanto estrago em meu coração

        D                                            G
E cada vez que eu ligo o som do carro uma canção me traz
                                    D
Boas lembranças de você aí eu bebo mais
                     C                  G
E fico entregue as baratas sem hera nem beira
        D                                        G
E a bebedeira é pesada e só acaba se eu cair no chão
                                     D
Garçom me traga o remédio pressa solidão
                           C                 G     D
Que eu vou curar minha tristeza hoje aqui na mesa

           G
Arreia cerveja, que eu quero beber
          Em
Arreia cerveja, que eu quero esquecer
         C
Os lhos dela,
           D
O perfume dela eu quero esquecer,

           G
Arreia cerveja, que eu quero beber
          Em
Arreia cerveja, que eu quero esquecer
               C                     D
E se eu passar mal e baixar no hospital,
                G
Não me deixe morrer.

(solo) G D C G D C D

Repete Tudo
10.379 exibições

Comentários 0

Composição: Sabe quem é o compositor? Envie pra gente. Contribuição: Leandro Correções: Ronnie Von , Tayanne e mais 3 »
Exibir acordes »
publicidade
fechar