Arpejo 2 (Exercício)

Eduardo Nascimento

Sem foto do Eduardo Nascimento Compositor: Eduardo Nascimento
Tom: D
		

e=-5-3-------7-12-9-------------------------------8-12-9---------------------------9-(12)/15-
B=----(x)---8-------11-------------------------10--------10---------------------10-----------
G=-------7-7-----------11------------------5-9--------------9-----------------9--------------
D=------------------------12-------------7--------------------11-----------11----------------
A=---------------------------14--------7-------------------------12-9~--12-------------------
E=------------------------------15-5-8-------------------------------------------------------



-12-----------------------8-11-6-------6-10-7-------7-11-8------8-10|-6-----------------------------
----13-----------------10--------8---8--------8---8--------9--9-----|--7----10-7--------------------
-------12-9----------9-------------7------------7-----------11------|---8-6------8------11-7--------
------------10----10------------------------------------------------|--------------10-7------9------
---------------12---------------------------------------------------|--------------------------11-7-
--------------------------------------------------------------------|-------------------------------



------------||-----------------------------------------6|-11-6---9-7--8----7------------3|*|
------------||------------------------------7-10-----7--|-----8-6~--6--8----6-----------4|*|
------------||------------------7-11------8------6-8----|------------8~-8-7~-7~~--------5|*|
-10-7-------||------7-10------9------7-10---------------|--------------------------------| |
------8-----||----8------7-11---------------------------|--------------------------------| |
--------10-7||-10---------------------------------------|--------------------------------| |
6.007 exibições

Comentários 0

Consegui tocarAinda não conseguiram tocar essa música. Seja o primeiro!
    Não consegui tocar
    Exibir acordes »
    publicidade
    fechar