Simple Kiss

Eleven

Sem foto do Eleven
Tom: E
		
Tabbed by: Per Budtz-Jørgensen
Email: *

Tuning: DGCFAD (one whole step down), chords not relative to tuning 
(to find actual chords, transpose one whole step down, E=D, A=G etc.)

I experimented a bit with the tuning, but in the end, this is what seemed right.

INTRO: 

  E

e|---------------------------------------------------------------------------|
B|---------------------------------------------------------------------------|
G|---------------------------------------------------------------------------|
D|----6-------6-------6-------6----------------------------------------------|
A|--7---7---7---7---7---7---7---7--------------------------------------------|
E|0-------0-------0-------0--------------------------------------------------|



VERSE (You're were made...)

  E               Esus2   B/d#    G#              A       Am

e|---------------------------------------------------------------------------|
B|---------------------------------------------------------------------------|
G|----4-------4-------4-------4-------5-------5-------6-------5--------------|
D|--6---6---6---6---4---4---4---4-------6-------6-------7-------7------------|
A|7-------7-------7-------6---------6-------6-------7-------7----------------|
E|--------------------------------4-------4-------5-------5------------------|


  E       A#ø     B7      Co      C#m             Am/C 

e|---------------------------------------------------------------------------|
B|--------------------4-------4----------------------------------------------|
G|----1-------1---------2-------2-----1-------1-------2-------2--------------|
D|--2---2---2---2---4-------4-------2---2---2---2---2---2---2---2------------|
A|--------1-------2-------3-------4-------4-------3-------3------------------|
E|0--------------------------------------------------------------------------|



CHORUS (Always a place bathed in grace...) 

  C#m             A#/d#           B7sus4          B7      

e|---------------------------------------------------------------------------|
B|--5-------5-------4-------4-------7-------7-------6-------6----------------|
G|----6-------6-------5-------5-------4-------4-------4-------4--------------|
D|------6-------6-------6-------6-------6-------6-------6-------6------------|
A|4-------4-------4-------4-------4-------4-------4-------4------------------|
E|---------------------------------------------------------------------------|


  F#/c#           Co              E/b               Am/c

e|---------------------------------------------------------------------------|
B|--2-------2-------4-------4-------0-------0-------1-------1----------------|
G|----2-------2-------2-------2-------1-------1-------2-------2--------------|
D|------4-------4-------4-------4-------2-------2-------2-------2------------|
A|4-------4-------3-------3-------2-------2-------3-------3------------------|
E|---------------------------------------------------------------------------|



| /  slide up
| \  slide down
| h  hammer-on
| p  pull-off
| ~  vibrato
| +  harmonic
| x  Mute note
===============================================================================
319 exibições

Comentários 0

Composição: Bernie Lynch / Castanets / Horton / Tennant / Tim Hawes
Esse não é o compositor? Avise-nos.
Consegui tocarAinda não conseguiram tocar essa música. Seja o primeiro!
    Não consegui tocar
    Exibir acordes »
    publicidade
    fechar