Sou uma criança, não entendo nada

Erasmo Carlos

 Erasmo Carlos
Tom: G
		
Intro: D7 / / C7 / / G6 / / / / D7 / / C7 / / G6 / / / /

Riff:


E|-----------------------------------------------------
B|-----------------------------3-3---------------------
G|-------4-7---7-7/5---3-3/4-------5-3---3-------------
D|---5-7-------------------------------5---5-5---------
A|-----------------------------------------------------
E|----------------------------------------------------- 2x


      G6                              C7(9)                    G6
Antigamente quando eu me excedia Ou fazia  alguma coisa errada
                                            A7                      D7(9)
Naturalmente minha mãe dizia: "Ele é uma criança, não entende nada".
              C7(9)                  G6  E7            A7           D7(9)     G6
Por dentro eu ria  satisfeito e mudo       - Eu era um homem e entendia  tudo

                                 C7(9)                      G6
Hoje só, com meus problemas Rezo muito, mas eu não me iludo
                                             A7                    D7(9)
Sempre me dizem quando fico sério: "Ele é um homem e entende tudo"
           C7(9)                 G6   E7         A7          D7(9)      G6
Por dentro com  a alma tarantada    - Sou uma criança, não entendo nada.

D7 / / C7 / / G6 / / / / D7 / / C7 / / G6 / / / /


E|-----------------------------------------------------
B|-----------------------------3-3---------------------
G|-------4-7---7-7/5---3-3/4-------5-3---3-------------
D|---5-7-------------------------------5---5-5---------
A|-----------------------------------------------------
E|----------------------------------------------------- 3x



E|-----------------------------------------------------
B|-----------------------------------------------------
G|-------4-7---7-7/5---3-3/4---------------------------
D|---5-7-----------------------------------------------
A|-----------------------------------------------------
E|-----------------------------------------------------
41.651 exibições

Comentários 1

  • jonathanpiresfernades jonathanpiresfernades: Postado em 30/11/2011 14:10

    Excelente música, o que a letra dela fala é a mais pura verdade, quanto mais se cresce menos se entende.

Composição: Alessandro Matias / Antonio Luiz / Denniz Pop / Erasmo Carlos / Joyce / Roberto Carlos
Esse não é o compositor? Avise-nos.
Contribuição: Monarco Correções: Guhh Quaiatti »
Exibir acordes »
publicidade
fechar