Em Ritmo de Valsa

Erick Emiliano

Sem foto do Erick Emiliano
Tom: 
		

E|---------------------------0---0----1---1----0---0-------------------------------|
B|------1---1-----3---3------------------------------------3---3-----1---1---------|
G|------------------------0--------2--------0--------------------------------------|
D|---2---------3---------------------------------------3----------2----------------|
A|----------------------------------------------------------------------------3----|
E|---------------------------------------------------------------------------------|



E|----------------------------------------------------------0---0---------------------------|
B|-------1---1-------0---0-------3----3-------1---1---------1---1------3---3--------------1-|
G|-------0---0-------0---0-------0----0-------0---0-----0--------------0---0--------------0-|
D|---2-----------0------------3------------2-----------------------3------------------------|
A|------------------------------------------------------------------------------0---2---3---|
E|----------------------------------------------------------------------------3-------------|
2.783 exibições

Comentários 0

Consegui tocarAinda não conseguiram tocar essa música. Seja o primeiro!
    Não consegui tocar
    Exibir acordes »
    publicidade
    fechar