Dance Dance

Fall Out Boy

 Fall Out Boy
Tom: D
		
Riff 1:

E|--------------------|
B|--------------------|
G|--------------------|
D|11-9--11-9--12------|
A|-----9-----9---9----|
E|--------------------|


Riff 2:

E|--------------------------------------------|
B|--------------------------------------------|
G|--------------------------------------------|
D|---------0-0-4-4-2-4-------------0-0-4-4-2-4|
A|-2-2-4-4-------------2-2-2-2-4-4------------|
E|--------------------------------------------|



E|-------------------------------------------------------|
B|-------------------------------------------------------|
G|-------------------------------------------------------|
D|-------------0-0-4-4-2-4-------------0-0-4-4-2-4-------|
A|-2-2-2-2-4-4-------------2-2-2-2-4-4-------------2-2-2 |
E|-------------------------------------------------------|


Riff Refrão:

E|--------------|
B|--------------|
G|-4--7--------3|
D|-4--7--5--4--3|
A|-2--5--5--4--1|
E|-------3--2---|




E|--------------|
B|--------------|
G|-4--7--------3|
D|-4--7--5--4--3|
A|-2--5--5--4--1|
E|-------3--2---|


Riff 3:

E|---------------------------------|---------------------------------|
B|---------------------------------|---------------------------------|
G|-4-4-4-4-4-4-4-4-6-6-6-6-6-6-6-6-|-7-7-7-7-7-7-7-7-7-91111-11b-11b-|
D|-x-x-x-x-x-x-x-x-x-x-x-x-x-x-x-x-|-x-x-x-x-x-x-x-x-x-x-x-x---------|
A|-2-2-2-2-2-2-2-2-4-4-4-4-4-4-4-4-|-5-5-5-5-5-5-5-5-5-7-9-9---------|
E|---------------------------------|---------------------------------|




E|---------------------------------|---------------------------------|
B|---------------------------------|---------------------------------|
G|-4-4-4-4-4-4-4-4-6-6-6-6-6-6-6-6-|-7-7-7-7-7-7-7-7-7-7-7-7-9-9-9-9-|
D|-x-x-x-x-x-x-x-x-x-x-x-x-x-x-x-x-|-x-x-x-x-x-x-x-x-x-x-x-x-x-x-x-x-|
A|-2-2-2-2-2-2-2-2-4-4-4-4-4-4-4-4-|-5-5-5-5-5-5-5-5-5-5-5-5-7-7-7-7-|
E|---------------------------------|---------------------------------|


Intro: Baixo

N.C.
She says she's no good with words but I'm worse
Barely stuttered out
"A joke of a romantic" or stuck to my tongue

(Riff 1 - 4x)
Weighed down with words too over dramatic
Tonight it's "It can't get much worse"
Vs. "No one should ever feel like..."

(Riff 2)
I'm two quarters and a heart down
And I don't want to forget how your voice sounds
These words are all I have so I'll write them
So you need them just to get by

(Riff 1)

Refrão:
(Riff Refrão)
Dance, Dance
We're falling apart to half time
(Riff Refrão)
Dance, Dance
And these are the lives you'd love to lead
(Riff Refrão)
Dance, this is the way they'd love
If they knew how misery loved me

(Riff 1 - 8x)


You always fold just
(Riff 1 - 3x)
before you're found out
Drink up it's last call
Last resort
But only the first mistake and I...

(Riff 2)
I'm two quarters and a heart down
And I don't want to forget how your voice sounds
These words are all I have so i'll write them
So you need them just to get by

N.C.
Why don't you show me the little bit of spine
You've been saving for his mattress (love)

Refrão:
(Riff Refrão)
Dance, Dance
We're falling apart to half time
(Riff Refrão)
Dance, Dance
And these are the lives you'd love to lead
(Riff Refrão)
Dance, this is the way they'd love
If they knew how misery loved me

(Riff 3 - 2x)
Why don't you show me the little bit of spine
You've been saving for his mattress
I only want sympathy in the form of you crawling into bed with me

Refrão 2x:
(Riff Refrão)
Dance, Dance
We're falling apart to half time
(Riff Refrão)
Dance, Dance
And these are the lives you'd love to lead
(Riff Refrão)
Dance, this is the way they'd love
If they knew how misery loved me

Final 8x:
(Riff 1)
Dance, Dance...

Comentários 2

Composição: Fall Out Boy / Jair Rocha
Esse não é o compositor? Avise-nos.
Contribuição: CaioLinkin Correções: DuuH e mais 1 »
Exibir acordes »
publicidade
fechar