Ainda Que a Figueira

Fernadinho

 Fernadinho
Tom: A
		
Intro 2x: F#m  A  E4/A  E

 F#m         E/G#
Tu És a minha porção
  Bm           D9
Tu es minha  herança
 F#m    E/G#             Bm            D9
Tu És o meu socorro nos dias de tribulação

 A                E
Mesmo que os meus pais me deixem
  Bm         D
Mesmo que amigos me traiam
A       E                       Bm         D9
Eu sei que em seus braços eu encontro salvação

 A                    E
Ainda que a figueira não floresça
 Bm                      D
Ainda que a videira não dê o seu fruto
 A                      E
Mesmo que não haja alimento nos campos
        G           D
Eu me alegrarei em Ti

Instrumental: Bm  A  E/G# D (4x)

Tablatura:

Solo Parte 1:


E|-------------------------------------------------------------|
B|-------------------------------------------------------------|
G|------2-2-----2-----2--2h4--2------2--2-2-2---1--1-----------|
D|--2h4-----2h4---2h4------------2h4---------------------------|
A|-------------------------------------------------------------|
E|-------------------------------------------------------------|



E|-------------------------------------------------------------|
B|-------------------------------------------------------------|
G|------2-2-----2-----2--2h4--2------2--2-2-2---1--1-----------|
D|--2h4-----2h4---2h4------------2h4---------------------------|
A|-------------------------------------------------------------|
E|-------------------------------------------------------------|


Solo Parte 2:


E|-------------------------------------------------------------|
B|---10--12\14--14/12--10--9-----------10-12/17-17\-10-9-------|
G|11-------------------------9-9\11-11-------------------9-9h11|
D|-------------------------------------------------------------|
A|-------------------------------------------------------------|
E|-------------------------------------------------------------|



E|---------------9---9---9---9-----12--12--12--12----12--------|
B|--10----10-----10--10--10--10----10--10--10--10----10--------|
G|-----11----11------------------------------------------------|
D|-------------------------------------------------------------|
A|-------------------------------------------------------------|
E|-------------------------------------------------------------|
Texto Colunas
Alterar tom ½ tom ½ tom
afinação acordes na letra esconder tabs mais »
121.849 exibições

Comentários (3)

  • ibaniz ibaniz: Postado em 01/10/2012 13:39

    Muito boa essa musica

  • Giovaneee Giovaneee: Postado em 24/11/2011 21:12

    Gosto muito dessa música, ainda vou aprender a tocar ela e vou tocar ela na igreja

  • matyok matyok: Postado em 18/08/2011 11:27

    muito legal essa musica

Composição: Sabe quem é o compositor? Envie pra gente. Contribuição: stevanhenson Correções: jonnasnovaes e mais 1 »
  1. Tudo Que Você Quiser - Luan Santana Manteve-se 5.838 exibições
  2. Lepo Lepo - Psirico Manteve-se 4.258 exibições
  3. Mozão - Lucas Lucco Manteve-se 4.092 exibições
  4. Logo Eu - Jorge e Mateus Manteve-se 3.677 exibições
  5. Gaveta - Fernando e Sorocaba Manteve-se 3.251 exibições
  6. Só Os Loucos Sabem - Charlie Brown Jr. Manteve-se 2.945 exibições
  7. Pra Você - Onze:20 Manteve-se 2.783 exibições
  8. Tempo Perdido - Legião Urbana Manteve-se 2.356 exibições
  9. Fui Fiel - Gusttavo Lima Manteve-se 2.236 exibições
  10. Na Linha do Tempo - Victor e Leo Manteve-se 2.111 exibições
  1. Jorge e Mateus- Manteve-se 22.167 exibições
  2. Legião Urbana- Manteve-se 19.327 exibições
  3. Luan Santana- Manteve-se 17.248 exibições
  4. Charlie Brown Jr.- Manteve-se 16.750 exibições
  5. Fernandinho- Manteve-se 14.218 exibições
  6. Thalles Roberto- Manteve-se 10.904 exibições
  7. Católicas- Manteve-se 10.314 exibições
  8. Aline Barros- Manteve-se 10.062 exibições
  9. Victor e Leo- Manteve-se 10.039 exibições
  10. Gusttavo Lima- Manteve-se 9.893 exibições
Exibir acordes »

Cifras e tabs

Fórum Cifra Club

Aprenda

Cifra Club News

Mais Serviços Cifra Club ID

Studio Sol

©1996 - 2014 Cifra Club · o primeiro, maior e mais acessado do Brasil · 329 mil músicas · 5.9 milhões pessoas cadastradas

publicidade
fechar