A Desconhecida

Fernando Mendes

 Fernando Mendes
Tom: D
		

     E  E  E  E  E                                                  E  E  E
E|--------5--------------------------------------------------------5--------|
B|-----7--------7--------------------------------------------------------7--|
G|--7--------7--------------------------------------------------------7-----|
D|--------------------------------------------------------------------------|
A|--------------------------------------------------------------------------|
E|--------------------------------------------------------------------------|



  E  E  E  E  E  E  E  E     E  E  E  E  E  E  E  E     Q.     E  Q    Q

|--------5--------5--------|--------5--------5--------|----------------------|
|-----7--------7--------7--|-----7--------7--------7--|----------------------|
|--6--------6--------6-----|--5--------5--------5-----|--4------4--6----7----|
|--------------------------|--------------------------|----------------------|
|--------------------------|--------------------------|----------------------|
|--------------------------|--------------------------|----------------------|



   E  E  E  E  E  E  E  E     E  E  E  E  E  E  E  E
|--------7--------7--------|--------7--------7--------|
|-----8--------8--------8--|-----8--------8--------8--|
|--9--------9--------9-----|--8--------8--------8-----|
|--------------------------|--------------------------|
|--------------------------|--------------------------|
|--------------------------|--------------------------|



   E  E  E  E  E  E  E  E     E  E  E  E  E  E  E  E
|--------------------------|--------------------------|
|--------5--------5--------|--------5--------5--------|
|-----6--------6--------6--|-----6--------6--------6--|
|--7--------7--------7-----|--7--------7--------7-----|
|--------------------------|--------------------------|
|--------------------------|--------------------------|


(Repete o quanto for Necessário)
    D                                                  F#m
    ^                              ^  v    v  ^  v     ^    ^  v    v  ^  v

     Q                              E  Q    E  E  E     Q    E  Q    E  E  E
|---2------------------------------2--2----2--2--2--|--2----2--2----2--2--2--|
|---3------------------------------3--3----3--3--3--|--2----2--2----2--2--2--|
|*--2------------------------------2--2----2--2--2--|--2----2--2----2--2--2--|
|*--0------------------------------0--0----0--0--0--|--4----4--4----4--4--4--|
|---------------------------------------------------|--4----4--4----4--4--4--|
|---------------------------------------------------|--2----2--2----2--2--2--|


  Em                       A
  ^    ^  v    v  ^  v     ^    ^  v    v  ^  v

   Q    E  Q    E  E  E     Q    E  Q    E  E  E   (4x)
|--0----0--0----0--0--0--|--0----0--0----0--0--0---||
|--0----0--0----0--0--0--|--2----2--2----2--2--2---||
|--0----0--0----0--0--0--|--2----2--2----2--2--2--*||
|--2----2--2----2--2--2--|--2----2--2----2--2--2--*||
|--2----2--2----2--2--2--|--0----0--0----0--0--0---||
|--0----0--0----0--0--0--|-------------------------||


35.967 exibições

Comentários 4

  • David David: Postado em 22/06/2014 12:00

    galera do cifra, faz um vídeo aula dessa musica quero tocar ela para meus familiares obg pela atenção

  • Mateus Mateus: Postado em 05/06/2014 22:17

    manda video aula to loco pra tocar essa musica

  • jorge luis jorge luis: Postado em 22/03/2014 21:39

    cade a video aula???

  • mjean mjean: Postado em 18/01/2014 11:49

    a desconhecida já estou tocando +=.kkkkkkk

Composição: Fernando Mendes / Fernando Augusto
Esse não é o compositor? Avise-nos.
Contribuição: damnary
Exibir acordes »
publicidade
fechar