Ponto Final

Fred & Gustavo

 Fred & Gustavo
Tom: E(acordes na forma do tom C)
Capotraste na 4ª casa		
Intro:

Violão 1:

                  C                             Am
E|-------------------------------|--------------------------|
B|-5-----4-----5---7-----5-----4-|-5-----4-----5------------|
G|---4-----4-----4---4-----4-----|---6-----6------4-4h6-4---|
D|-----6-----6---------6-----6---|-----6-----6------------7-|
A|-7-----7-----7---7-----7-----7-|-4-----4-----4------------|
E|-------------------------------|--------------------------|



                  C                             Am
E|-------------------------------|--------------------------|
B|-5-----4-----5---7-----5-----4-|-5-----4-----5------------|
G|---4-----4-----4---4-----4-----|---6-----6------4-4h6-4---|
D|-----6-----6---------6-----6---|-----6-----6------------7-|
A|-7-----7-----7---7-----7-----7-|-4-----4-----4------------|
E|-------------------------------|--------------------------|


Violão 2:  C G Am F

1º parte:
(Violão 1)


E|------------------------------------------|
B|-5-5-4-5/7-5-4h5p4------------------------|
G|-6-----------------6-4-4h6-6-4------------|
D|-6-----------------------------7--7-7-6-4-|
A|-4----------------------------------------|
E|------------------------------------------|



E|---------------------------------|
B|-5-5-4-5/7-5-4h5p4---------------|
G|-6-----------------6-4-4h6-6-4---|
D|-6-----------------------------7-|
A|-4-------------------------------|
E|---------------------------------|


Am            F
Acabou é ponto final pra nós dois
                               Am
me diz o que vem depois desse amor
                 F
acabou suas mentiras e juras intrigas

2º parte:

C                 G
tudo de bom que a gente viveu
        Am               F
vou guardar dentro do coração

(Violão 1)

                  C
E|------------------------------------------------------------------------|
B|-5-----4-----5---7-----5------7-7/9-9-9-9-7-9/12-10--10-10-10\9-7\5-7/9-|
G|---4-----4-----4---4------6---------------------------------------------|
D|-----6-----6---------6------4-------------------------------------------|
A|-7-----7-----7---7-----7------7-----------------------------------------|
E|------------------------------------------------------------------------|


     C                    G
mais quero esquecer os momentos
            Am                F
que voce me fez chorar de solidão


Pré-refrão:
C                          G
não vai ser tão facil esquecer nosso amor
     Am                    Em
lembrar do meu corpo e não ter meu calor
F                       Dm           G          F  G
solidão abraça quem não da valor ao grande amor

Refrão:
C                                       G
vai e ao fechar a porta não olhe pra traz
                                         F
eu sei que vou sofrer mais eu não quero mais
               Dm              G  F        G        C
ficar aqui chorando esperando você    agora é pra valer
                                      G
voce não deu valor não cuidou de nós dois
                                       F
não vou voltar atraz nem deixar pra depois
   G                   C
é ponto final pra nóis dois

Solo:


     C        G       Am       F                 C           G          Am          F
E|---------------------------------------------------------------------------------------|
B|-5-4-5-5/7-5-7-7/9-7-9-9/10-10-10-10p9-7\5-5/9--9-9-9h7-5/7-7-7-7h5-4-5--5-5p4---------|
G|-------------------------------------------------------------------------------6p4-----|
D|-----------------------------------------------------------------------------------6h7-|
A|---------------------------------------------------------------------------------------|
E|---------------------------------------------------------------------------------------|



E|-------------------------------|
B|---------5-7-7/10-9h10p9-7\5-5-|
G|-------6-----------------------|
D|-7-7h9-------------------------|
A|-------------------------------|
E|-------------------------------|


2º parte:

C                 G
tudo de bom que a gente viveu
        Am               F
vou guardar dentro do coração

(Violão 1)

                  C
E|------------------------------------------------------------------------|
B|-5-----4-----5---7-----5------7-7/9-9-9-9-7-9/12-10--10-10-10\9-7\5-7/9-|
G|---4-----4-----4---4------6---------------------------------------------|
D|-----6-----6---------6------4-------------------------------------------|
A|-7-----7-----7---7-----7------7-----------------------------------------|
E|------------------------------------------------------------------------|


     C                    G
mais quero esquecer os momentos
            Am                F
que voce me fez chorar de solidão

Pré-refrão:

C                          G
não vai ser tão facil esquecer nosso amor
     Am                    Em
lembrar do meu corpo e não ter meu calor
F                       Dm           G          F  G
solidão abraça quem não da valor ao grande amor

Refrão:
C                                       G
vai e ao fechar a porta não olhe pra traz
                                         F
eu sei que vou sofrer mais eu não quero mais
               Dm              G  F        G        C
ficar aqui chorando esperando você    agora é pra valer
                                      G
voce não deu valor não cuidou de nós dois
                                       F
não vou voltar atraz nem deixar pra depois

Intro:

Violão 1:

                  C                             Am
E|-------------------------------|--------------------------|
B|-5-----4-----5---7-----5-----4-|-5-----4-----5------------|
G|---4-----4-----4---4-----4-----|---6-----6------4-4h6-4---|
D|-----6-----6---------6-----6---|-----6-----6------------7-|
A|-7-----7-----7---7-----7-----7-|-4-----4-----4------------|
E|-------------------------------|--------------------------|



                  C                             Am
E|-------------------------------|----------------5--5-5-5-4-----|
B|-5-----4-----5---7-----5-----4-|-5-----4-----5-------------7-5-|
G|---4-----4-----4---4-----4-----|---6-----6---------------------|
D|-----6-----6---------6-----6---|-----6-----6-------------------|
A|-7-----7-----7---7-----7-----7-|-4-----4-----4-----------------|
E|-------------------------------|-------------------------------|



                  C                             Am
E|-------------------------------|--------------------------|
B|-5-----4-----5---7-----5-----4-|-5-----4-----5------------|
G|---4-----4-----4---4-----4-----|---6-----6------4-4h6-4---|
D|-----6-----6---------6-----6---|-----6-----6------------7-|
A|-7-----7-----7---7-----7-----7-|-4-----4-----4------------|
E|-------------------------------|--------------------------|



                  C                             Am
E|-------------------------------|--------------------------|
B|-5-----4-----5---7-----5-----4-|-5-----4-----5------------|
G|---4-----4-----4---4-----4-----|---6-----6------4-4h6-4---|
D|-----6-----6---------6-----6---|-----6-----6------------7-|
A|-7-----7-----7---7-----7-----7-|-4-----4-----4------------|
E|-------------------------------|--------------------------|


Violão 2: C G Am F
7.544 exibições

Comentários 1

  • allanmineiro allanmineiro: Postado em 17/04/2012 20:09

    taí galera minha versão que tirei dessa música
    espero q gostem vlw

Composição: Sabe quem é o compositor? Envie pra gente. Contribuição: welitonguairapr Correções: allanmineiro e mais 2 »
Exibir acordes »
publicidade
fechar