Homem Não Chora

Frejat

 Frejat
Tom: F
		
(intro) Dm  C   Bb

F                       C            Dm7
Homem não chora nem por dor nem por amor
                    Bb
e antes que eu me esqueça
F                     C                 Bb
Nunca me passou pela cabeça lhe pedir perdão
F                     C                Dm7
E só porque eu estou aqui ajoelhado no chão
                 Bb
com o coração na mão, não quer dizer
    F                 C                  Bb
que tudo mudou, que o tempo parou, que você ganhou

    Am
Meu rosto vermelho, molhado,
                   Dm7
é só dos olhos pra fora
      Am                        Dm7
Todo mundo sabe que homem não chora
          Am
Esse meu rosto vermelho, molhado,
                   Dm7
é só dos olhos pra fora
     Am                       Bb         Bb     C
Todo mundo sabe que homem não chora. Não chora, não.

F                       C              Dm7
Homem não chora nem por ter nem por perder
             Bb
Lágrimas são água
F                    C                 Bb
Caem do meu queixo e secam sem tocar o chão
F                   C                   Dm7
E só porque você me viu cair em contradição
                Bb
dormindo em sua mão, não vai fazer
F                 C              Bb
a chuva passar, o mundo ficar no mesmo lugar

    Am
Meu rosto vermelho, molhado,
                   Dm7
é só dos olhos pra fora
      Am                        Dm7
Todo mundo sabe que homem não chora
          Am
Esse meu rosto vermelho, molhado,
                   Dm7
é só dos olhos pra fora
     Am                       Bb         Bb     C
Todo mundo sabe que homem não chora. Não chora, não.

(base antes do solo - 4x) ( F  C  Bb )


(base solo) ( Dm  C   Bb )
E |------------------------------------------------------10-10-10-10-----------10-------
B |------------------------------13-------------10--13----------------13-10-13----------
G |--10----10--12--12b--10--12b-----12b--10--12------------------------------------12---
D |-----12------------------------------------------------------------------------------
A |-------------------------------------------------------------------------------------
E |-------------------------------------------------------------------------------------



E |-------------------------------------------------------------------------------------
B |--------------10--13p12-10h11p10----10---------------------------5---5---------------
G |--10----10-12--------------------12----12-10----10--12--9h10p9-----5-----------------
D |-----12--------------------------------------12------------------------5-5b-3---3----
A |------------------------------------------------------------------------------5------
E |-------------------------------------------------------------------------------------



E |--------------14-13----14-13----14-13----14-13----14p13p11-----14p13p11----14p13p11--
B |-----------11-------11-------11-------11-------11-----------11----------11-----------
G |-------------------------------------------------------------------------------------
D |--5-5-5-3----------------------------------------------------------------------------
A |-------------------------------------------------------------------------------------
E |-------------------------------------------------------------------------------------



E |-----14p13p11----14p13p11----14p13p11----14p13p11----14p13p11---15b--13--------------
B |--11----------11----------11----------11----------11--------------------15----13-----
G |---------------------------------------------------------------------------14--------
D |-------------------------------------------------------------------------------------
A |-------------------------------------------------------------------------------------
E |-------------------------------------------------------------------------------------
258.674 exibições

Comentários 5

  • Luiz Luiz: Postado em 07/01/2014 08:47

    A VIDEO AULA NAO ESTA COM A MSM CIFRA DA LETRA AO SEU LADO

  • Hurt Hurt: Postado em 18/11/2013 07:06

    Quem é Lima? Lima é tio meu !!!! =)

  • opa123 opa123: Postado em 21/01/2013 22:59

    Toca muito o rapaz.Parabens

  • opa123 opa123: Postado em 21/01/2013 22:58

    Lima eh o melhor!!!!

  • teteuf40 teteuf40: Postado em 03/12/2012 12:41

    linda de mais!

Composição: Frejat / Alvin L.
Esse não é o compositor? Avise-nos.
Contribuição: g1l
Exibir acordes »
publicidade
fechar