Caçador de Corações

Gian e Giovani

 Gian e Giovani
Tom: 
		

E|----------------------------------------------------|
B|----------------------------------------------------|
G|-----------4---------------5---------------5/7------|
D|-5-5-5/4-5-------5-5-5/4-5-------5-5-5/4-5----------|
A|----------------------------------------------------|
E|----------------------------------------------------|



E|----------------------------------------------------|
B|-------5-7-7/8-7h8-7----7-7-7/8-7-5----5-5-5/7-5-3--|
G|-4-5-7----------------------------------------------|
D|----------------------------------------------------|
A|----------------------------------------------------|
E|----------------------------------------------------|



E|----------------------------------------------------|
B|-0-2-3-3---0-2-3-2---0-2-3---3/5-3-2----------------|
G|----------------------------------------------------|
D|----------------------------------------------------|
A|----------------------------------------------------|
E|----------------------------------------------------|
1.525 exibições

Comentários 0

Composição: Mário Maranhão / Jefferson Farias
Esse não é o compositor? Avise-nos.
Contribuição: tio danas
Consegui tocarAinda não conseguiram tocar essa música. Seja o primeiro!
    Não consegui tocar
    Exibir acordes »
    publicidade
    fechar