Franklins Tower

Grateful Dead

 Grateful Dead
Tom: A
		
b=bend
r= release
/=slide
h=hold bend
Chords
   A     G  These Are The Chords throughout the whole song, he strums em
             around five times each

|--5-----3----------------------------------------------|
|--5-----3----------------------------------------------|
|--6-----4----------------------------------------------|
|--7-----5----------------------------------------------|
|-------------------------------------------------------|
|-------------------------------------------------------|


Beginning Solo

|--15b17r15---12-------------12-12/15-------------------|
|------------------10--10-----------15/17--17-----------|
|-------------------------------------------------------|
|-------------------------------------------------------|
|-------------------------------------------------------|
|-------------------------------------------------------|



|-----------------------------------------------------|
|-----------------------------------------------------|
|-----14--18--16-12--14--11-12-12-12--9--9-11--12-----|
|--14-------------------------------------------------|
|-----------------------------------------------------|
|-----------------------------------------------------|



|-----------------------------------------------------|
|-----------------------------------------------------|
|-11--9----------------------9------------------------|
|--------11---9--7-7--7/9-11----11-11--9-7------------|
|-------------------------------------------7-9--7----|
|-----------------------------------------------------|



|-----------------------------------------------------|
|-----------------------------------------------------|
|--9-12--14--9--11-12-14-14-16-16--14---14------------|
|-----------------------------------------------------|
|-----------------------------------------------------|
|-----------------------------------------------------|

A                 G
In another time's forgotten space
A                G
your eyes looked from your mother's face
A                  G
Wildflower seed on the sand and stone
A                  G
may the four winds blow you safely home 

A            G
Roll away ... the dew
A            G
Roll away ... the dew
A            G
Roll away ... the dew
A            G
Roll away ... the dew


|-----------------------------------------------------|
|-----------------------------------------------------|
|------------------------11-9---9-12-11-9-9--11b-9----|
|----11-9--7---7-9-11-12------------------------------|
|-----------------------------------------------------|
|-----------------------------------------------------|



|-----------------------------------------------------|
|-----------------------------------------------------|
|-------9-11-13--14--16-16bhhr--14-16-14--------------|
|-9-11------------------------------------14----------|
|-----------------------------------------------------|
|-----------------------------------------------------|



|-----------------------------------------------------|
|--17--15-15--17---------15-------------19-17--19-----|
|----------------16-14-16----16---16/18---------------|
|-----------------------------------------------------|
|-----------------------------------------------------|
|-----------------------------------------------------|



|-----------------------------------------------------|
|-----------------------------------------------------|
|-18-18--16--14--16b--16--14----16b-14----------------|
|-----------------------------------------------------|
|-----------------------------------------------------|
|-----------------------------------------------------|








A                    g
ill tell you where the four winds dwell
A                   G
In Franklin's tower there hangs a bell
A                 G
It can ring, turn night to day
A                 G
Ring like fire when you lose your way


A            G
Roll away ... the dew
A            G
Roll away ... the dew
A            G
Roll away ... the dew
A            G
Roll away ... the dew
A                  G
God help the child who rings that bell
A                            G
It may have one good ring left, you can't tell
A                  G
One watch by night, one watch by day
A                            G
If you get confused just listen to the music play


|-----------------------------------------------------------|
|--------------------19-17-----17---------------------------|
|--------14-16b-14---------18-------18--16--14--14--16bb----|
|-14--16----------------------------------------------------|
|-----------------------------------------------------------|
|-----------------------------------------------------------|



|-----------------------------------------------------|
|-----------------------------------------------------|
|--14--16b-16b--14-------16--14-16b--14------14--16---|
|------------------14-16------------------16----------|
|-----------------------------------------------------|
|-----------------------------------------------------|



|-----------------------------------------------------|
|-----------------------------------------------------|
|-16b-16b--14-14------------14--16b-----14/-----------|
|-------------------14--16-----------16---------------|
|-----------------------------------------------------|
|-----------------------------------------------------|


Thats a rough draft of the solo, he does alot of bends on the 16 
but i didnt catch everything so listen to the solo, but this is the area where he plays





A                  G
Some come to laugh their past away
A                    G
Some come to make it just one more day
A                 G
Whichever way your pleasure tends
A                     G
if you plant ice you're gonna harvest wind


A            G
Roll away ... the dew
A            G
Roll away ... the dew
A            G
Roll away ... the dew
A            G
Roll away ... the dew
A                    G
In Franklin's Tower the four winds sleep
A                     G
Like four lean hounds the lighthouse keep
A                  G
Wildflower seed on the sand and stone
A                  G
may the four winds blow you home again

A            G
Roll away ... the dew
A            G
Roll away ... the dew
A            G
Roll away ... the dew
A            G
Roll away ... the dew
A               G
You better roll away the dew


347 exibições

Comentários 0

Composição: Bill Kreutzmann / Brothers from Another / Marc Wanninger / S. Rizo / Samuel Rosa
Esse não é o compositor? Avise-nos.
Consegui tocarAinda não conseguiram tocar essa música. Seja o primeiro!
    Não consegui tocar
    Exibir acordes »
    publicidade
    fechar