She

Green Day

 Green Day
Tom: F#
		
Intro/Verse (Bass)
Pre Chorus

E|-------------------|
B|-------------------|
G|-------------------|
D|-4-4-4-4-4-4-4-4-4-|
A|-4-4-4-4-4-4-4-4-4-|
E|-2-2-2-2-2-2-2-2-2-|

PM *****************
Chorus

E|--------------------------------------|----------------------------------------|
B|--------------------------------------|----------------------------------------|
G|-6-6-6-6-6-6-6-6--4-4-4-4-------------|-6-6-6-6-6-6-6-6--4-4-4-4---------------|
D|-6-6-6-6-6-6-6-6--4-4-4-4-4-4-4-4-4-4-|-6-6-6-6-6-6-6-6--4-4-4-4--4-4-4-4-4-4--|
A|-4-4-4-4-4-4-4-4--2-2-2-2-4-4-4-4-4-4-|-4-4-4-4-4-4-4-4--2-2-2-2--4-4-4-4-4-4--|
E|--------------------------2-2-2-2-2-2-|---------------------------2-2-2-2-2-2--|



E|---------------------|---------------------|-------------------------------------|
B|---------------------|---------------------|-------------------------------------|
G|-4-4-4-4-------------|-4-4-4-4-------------|-4-4-4-4-------------6-6-6-6-6-6-6-6-|
D|-4-4-4-4-4-4-4-4-4-4-|-4-4-4-4-4-4-4-4-4-4-|-4-4-4-4-4-4-4-4-4-4-6-6-6-6-6-6-6-6-|
A|-2-2-2-2-4-4-4-4-4-4-|-2-2-2-2-4-4-4-4-4-4-|-2-2-2-2-4-4-4-4-4-4-4-4-4-4-4-4-4-4-|
E|---------2-2-2-2-2-2-|---------2-2-2-2-2-2-|---------2-2-2-2-2-2-----------------|

Verse 2

E|-----------------------------------------------------------------------------------|
B|-----------------------------------------------------------------------------------|
G|---------------------6-6-6-6-6-6-6-6-6-6--4-4-4-4-4-4-4-4-4-4--4-4-4-4-4-4-4-4-4-4-|
D|-4-4-4-4-4-4-4-4-4-4-6-6-6-6-6-6-6-6-6-6--4-4-4-4-4-4-4-4-4-4--4-4-4-4-4-4-4-4-4-4-|
A|-4-4-4-4-4-4-4-4-4-4-4-4-4-4-4-4-4-4-4-4--2-2-2-2-2-2-2-2-2-2--2-2-2-2-2-2-2-2-2-2-|
E|-2-2-2-2-2-2-2-2-2-2---------------------------------------------------------------|

PM   *****************   ******  *****   *    *********   *****    *****************

E|------------|---------------------------------------------------------------------|
B|------------|---------------------------------------------------------------------|
G|-----4------|--------------------6-6-6-6-6-6-6-6-6--4-4-4-4-4-4-4-4-4--4-4-4-4-4-4|
D|-4-4-4-4-4--|-4-4-4-4-4-4-4-4-4--6-6-6-6-6-6-6-6-6--4-4-4-4-4-4-4-4-4--4-4-4-4-4-4|
A|-4-4-2-4-4--|-4-4-4-4-4-4-4-4-4--4-4-4-4-4-4-4-4-4--2-2-2-2-2-2-2-2-2--2-2-2-2-2-2|
E|-2-2---2-2--|-2-2-2-2-2-2-2-2-2---------------------------------------------------|

PM ***   ***      *****   *****      *****   *****      *****   *****

E|---------------------------------|
B|---------------------------------|
G|-4-4-4-4-------4-4-x-------------|
D|-4-4-4-4---4-4-4-4-x-4-4-4-4-4-4-|
A|-2-2-2-2---4-4-2-2-x-4-4-4-4-4-4-|
E|-----------2-2-------2-2-2-2-2-2-|

Chorus
Bridge

E|----------------------------------------------------------------------------------|
B|----------------------------------------------------------------------------------|
G|----------------------6-6-6-6-6-6-6-6-6-6--4-4-4-4-4-4-4-4-4-4-4-4-------4-4-x----|
D|-4-4-4-4-4-4-4-4-4-4--6-6-6-6-6-6-6-6-6-6--4-4-4-4-4-4-4-4-4-4-4-4--4-4--4-4-x----|
A|-4-4-4-4-4-4-4-4-4-4--4-4-4-4-4-4-4-4-4-4--2-2-2-2-2-2-2-2-2-2-2-2--4-4--2-2-x----|
E|-2-2-2-2-2-2-2-2-2-2------------------------------------------------2-2-----------|



E|-----------------|----------------------------------------------------------------|
B|-----------------|----------------------------------------------------------------|
G|-----------------|---------------------6-6-6-6-6-6-6-6-6-6--4-4-4-4-4-4-4-4-4-4-4-|
D|-4-4-4-4-4-4-4-4-|-4-4-4-4-4-4-4-4-4-4-6-6-6-6-6-6-6-6-6-6--4-4-4-4-4-4-4-4-4-4-4-|
A|-4-4-4-4-4-4-4-4-|-4-4-4-4-4-4-4-4-4-4-4-4-4-4-4-4-4-4-4-4--2-2-2-2-2-2-2-2-2-2-2-|
E|-2-2-2-2-2-2-2-2-|-2-2-2-2-2-2-2-2-2-2--------------------------------------------|



E|----------------------------|
B|----------------------------|
G|-----4-4-x------------------|
D|-4-4-4-4-x--4-4-4-4-4-4-4-4-|
A|-4-4-2-2-x--4-4-4-4-4-4-4-4-|
E|-2-2--------2-2-2-2-2-2-2-2-|

Chorus
End
E|-----|
E|-----|
G|-----|
D|-4---|
A|-4---|
E|-2---|

Comentários 3

Composição: Billie Joe Armstrong / Green Day / Moore / Natalie Hinds / Robert Thiele / Tommy Torres
Esse não é o compositor? Avise-nos.
Contribuição: Rafael Correções: renaldo_petlim »
Exibir acordes »
publicidade
fechar