Grupo Reponte

Por Amar Você

5.878 exibições
Tom: A
A E7 D E7 A E7 D E7 A D E7

        A                          D      A     E7
Me embreto nos teus braços, no calor dessa paixão
        F#m7                     E
Quero o mel da sua boca, me bate a vontade louca
       D
De roubar seu coração, coração
           E7
Te dei os sonhos que sonhei,
        F#m7                     E7
És a estrela que busquei no infinito amor
       D          E7     A
Somos pétalas da mesma flor

       E7                               D
(Por amar você, fiz dos meus braços um laço
                      A        E7
E na ternura deste abraço a lacei
                      D            A
Por amar você, entreguei-me ao te ter
       D           A       E7           A
Teu olhar parece querer dizer como esperei)


e|----------17/19---------16-16/17-16-16-14-14-12-10-9/10-12--------------------------||
B|-14-15-17------17~-17-19----------------------------------9-9--9-12/15-14-12-14-17~-||
G|------------------------------------------------------------------------------------|| 



e|-------16-17-16-14-12---12/14-12-10-12-------------------------------------------||
B|-17-19---------------10----------------10-9-9--12-12/14-12-10-12-----------------||
G|-----------------------------------------9-9-9-----------------------------------|| 



e|---------------------------------------------------------||
B|-12b(14-14-14)-12-10-------------------------------------||
G|---------------------9/11-9~-----------------------------||


Int.

Comentários 0

conseguiu tocar?

  • Fufyl

covers

Grave um vídeo tocando Por Amar Você e mande pra gente!

Ex.: http://www.youtube.com/watch?v=0IvSvIwGdwk
ver covers de outras músicas »
0:00 / 0:00

Capítulos

    1 versão de violãodificuldadeexibiçõescontribuição e correção
    1 versão de guitarradificuldadeexibiçõescontribuição e correção
    1 versão de cavacodificuldadeexibiçõescontribuição e correção
    1 versão de tecladodificuldadeexibiçõescontribuição e correção
    play/pausefechar subir/descer velocidade
    6ª corda E5ª corda A4ª corda D3ª corda G2ª corda B1ª corda E
      acordes
      publicidad
      fechar
      ok