Tudo Está Aqui

Gui Pagliari

 Gui Pagliari Compositor: Gui Pagliari
Tom: C
		

E|--------------------------------------------------------------------------|
B|--------------------------------------------------------------------------|
G|--------------------------------------------------------------------------|
D|---------------------------2-------------2----------2-----3----2----------|
A|-------------------0----3-----3--1----1-----3----0-----3-----------0------|
E|---------------3----------------------------------------------------3-----|



E|---------------------------------------------------------------------------------|
B|---------------------------------------------------------------------------------|
G|---------------------------------------------------------------------------------|
D|-----2-------------2-----------2-----3----2-------------2-------------2----------|
A|--3-----3--1----1-----3----0-----3-------------0----3-----3--1----1-----3--------|
E|-----------------------------------------------3---------------------------------|



E|---------------------------------------------------------------------------------|
B|---------------------------------------------------------------------------------|
G|---------------------------------------------------------------------------------|
D|-----2-----3----2-------------2-------------2------------2-----3----2------------|
A|--0-----3-------------0----3-----3--1----1-----3-----0-----3-------------0-------|
E|-------------------3--------------------------------------------------3----------|



E|---------------------------------------------------------------------------------|
B|---------------------------------------------------------------------------------|
G|---------------------------------------------------------------------------------|
D|------2-------------2----------2-----3----2--------------2-------------2---------|
A|--3-----3--1----1-----3----0-----3-------------0----3-----3--1----1-----3--------|
E|----------------------------------------------3----------------------------------|



E|------------------------------------------------------------------------------------|
B|------------------------------------------------------------------------------------|
G|------------------------------------------------------------------------------------|
D|-----2-----3----2--3-2-0-------2-------------2----------2-----3----2--3-2-0---------|
A|--0-----3-------------------3------3--1----1-----3----0-----3-----------------------|
E|------------------------------------------------------------------------------------|



E|-----------------------------------------------------------------------|
B|-----------------------------------------------------------------------|
G|-----------------------------------------------------------------------|
D|-----2-------------2-----------2-----3----2--3-2-0---------------------|
A|--3-----3--1----1-----3----0-----3-------------------------------------|
E|-----------------------------------------------------------------------|


É verdade, já faz tempo
Crescemos, já somos
Ainda, aprendendo a viver
Aprendendo a viver

       C
Seja forte quando digo
Seja forte meu amigo
             Bb
São maneiras de dizer
São de maneiras de fazer
     Am
Virtudes e promessas
G
De uma vida farta

C
Sabe o que desejo
                              Bb
Atitudes que aliviam
                              Am
Se não fosse a emoção
            G
Se não fosse a razão

       C Bb         Am                 G
É amor, tudo está aqui, tudo está em ti
       C Bb         Am                       G
É amor, tudo está em mim, tudo está aqui

Riff
Essa é uma história com final feliz
Essa é uma história, uma prova de amor
9 exibições

Comentários 0

Composição: Sabe quem é o compositor? Envie pra gente. Contribuição: Gui
Consegui tocarAinda não conseguiram tocar essa música. Seja o primeiro!
    Não consegui tocar
    Exibir acordes »
    publicidade
    fechar