My Dearest

Guilty Crown

 Guilty Crown Compositor: Ryo
Tom: 
		
Intro

E|--------------------------------------------------------------|
B|----13-12-10--------------------------------------------------|
G|-12----------12-12--------------------------------------------|
D|-------------------12-12/14-15-14-15-14-15-14-12-10-9-10------|
A|--------------------------------------------------------------|
E|--------------------------------------------------------------|



E|--------------------------------------------------------------|
B|-13~----------13-13-12-10-8-8---------------------------------|
G|-12~--------------------------10-9-7-7-9-10-9-7---------------|
D|-10~--10-12-10------------------------------------------------|
A|--------------------------------------------------------------|
E|--------------------------------------------------------------|



E|-------------15-15-13-12----10-12-----------------------------|
B|-13-13-12-13-------------15-----------------------------------|
G|--------------------------------------------------------------|
D|--------------------------------------------------------------|
A|--------------------------------------------------------------|
E|--------------------------------------------------------------|


Verse

E|------------------------------------------------------------------|
B|------------------------------------------------------------------|
G|-9~---12-12-10-9--------------------------------------------------|
D|---10------------10-12-10-12p10~-10-9-9-10-9----------------------|
A|---------------------------------------------10-10-10-12-12-12p10-|
E|------------------------------------------------------------------|



E|--------------------------------------------------------------|
B|--------------------------------------------------------------|
G|--------------------------------------------------------------|
D|-12-14-14-15-15-14-12-10-9-9-9/10~----------------------------|
A|--------------------------------------------------------------|
E|--------------------------------------------------------------|



E|----------------------------------------------------------------|
B|----------------------------------------------------------------|
G|-----12-12-10-9-------------------------------------------------|
D|--10------------10-12-10-12-12p10~--10-9-7-10-12-14-15-14-12-10-|
A|----------------------------------------------------------------|
E|----------------------------------------------------------------|



E|-------------------------------|
B|-------------------------------|
G|-------------------------------|
D|-7------12-14-14-15-15~-14-12~-|
A|---10~-------------------------|
E|-------------------------------|



E|-----------------------------------------------|
B|-------------13-13-13-13-13-13-13-13-12-12-8-8-|
G|-----------------------------------------------|
D|-10-14-12-10-----------------------------------|
A|-----------------------------------------------|
E|-----------------------------------------------|



E|-------------------------------------------------|
B|-------------------------------------------------|
G|----7-9-10-9---------7-9-10-9-10-9-7-------------|
D|-10---------[x2]--10-----------------10-12-12p10-|
A|-------------------------------------------------|
E|-------------------------------------------------|



E|----------------------------------------------------|
B|----------------------------------------------------|
G|----------------------------------------------------|
D|-10-9-10-9-10-7-----10-12-14-14-15--12-14-15-15/17~-|
A|----------------10~---------------------------------|
E|----------------------------------------------------|


Pre-Chorus

E|--------------------------------------------------------------|
B|----13-12-10--------------------------------------------------|
G|-12----------12-12--------------------------------------------|
D|-------------------12-14-15-14-15-14-15-14-12-10--------------| x3
A|--------------------------------------------------------------|
E|--------------------------------------------------------------|



E|--------------------------------------------------------------|
B|----13-12-13----15-13-15----17-18-17-18-17-15-13~-------------|
G|-12----------12----------12-----------------------------------|
D|--------------------------------------------------------------|
A|--------------------------------------------------------------|
E|--------------------------------------------------------------|


Chorus

E|--------------------------------------------------------------|
B|----13-12-10--------------------------------------------------|
G|-12----------12-12--------------------------------------------|
D|-------------------12-14-15-14-15-14-15-14-12-10--------------|
A|--------------------------------------------------------------|
E|--------------------------------------------------------------|



E|--------------------------------------------------------------|
B|----13-12-10--------------------------------------------------|
G|-12----------12-12--------------------------------------------|
D|-------------------12-14-15-14-15-14-15-17-19-17--------------|
A|--------------------------------------------------------------|
E|--------------------------------------------------------------|



E|-----------------------------------------------------------------|
B|----13-12-10-----------------------------------------------------|
G|-12----------12-12-----------------------------------------------|
D|-------------------12-14-15-14-15-14-15-14-12-10-9/10-10-12-10---|
A|-----------------------------------------------------------------|
E|-----------------------------------------------------------------|


Verse

E|--------------------------------------------------------------|
B|--------------------------------------------------------------|
G|-9~----12-12-10-9---------------------------------------------|
D|----10------------10-12-10-12-10~--10-9-7-10-12-14-15-14-12-10|
A|--------------------------------------------------------------|
E|--------------------------------------------------------------|



E|--------------------------------------------------------------|
B|--------------------------------------------------------------|
G|--------------------------------------------------------------|
D|-7------12-14-14-15-15~-14-12~--------------------------------|
A|---10~--------------------------------------------------------|
E|--------------------------------------------------------------|


Pre-Chorus

E|--------------------------------------------------------------|
B|----13-12-10--------------------------------------------------|
G|-12----------12-12--------------------------------------------|
D|-------------------12-14-15-14-15-14-15-14-12-10--------------| x3
A|--------------------------------------------------------------|
E|--------------------------------------------------------------|



E|--------------------------------------------------------------|
B|----13-12-13----15-13-15----17-18-17-18-17-15-13~-------------|
G|-12----------12----------12-----------------------------------|
D|--------------------------------------------------------------|
A|--------------------------------------------------------------|
E|--------------------------------------------------------------|


Chorus

E|--------------------------------------------------------------|
B|----13-12-10--------------------------------------------------|
G|-12----------12-12--------------------------------------------|
D|-------------------12-14-15-14-15-14-15-14-12-10--------------|
A|--------------------------------------------------------------|
E|--------------------------------------------------------------|



E|--------------------------------------------------------------|
B|----13-12-10--------------------------------------------------|
G|-12----------12-12--------------------------------------------|
D|-------------------12-14-15-14-15-14-15-17-19-17--------------|
A|--------------------------------------------------------------|
E|--------------------------------------------------------------|



E|-----------------------------------------------------------------|
B|----13-12-10-----------------------------------------------------|
G|-12----------12-12-----------------------------------------------|
D|-------------------12-14-15-14-15-14-15-14-12-10-9/10-10-12-10~--|
A|-----------------------------------------------------------------|
E|-----------------------------------------------------------------|


Solo

E|----------------------------------------------------------------|
B|-13/15~-13--13/15~-13-12-8~--------------------------^----------|
G|---------------------------10-10-9-10-9-7------------7b---------|
D|---~--------------------------------------10~-7-9-10----10-9-10-|
A|----------------------------------------------------------------|
E|----------------------------------------------------------------|



E|----------------------12-10-8-7---------|
B|-12-13-15-12-13-15-17-----------10-8-5~-|
G|----------------------------------------|
D|----------------------------------------|
A|----------------------------------------|
E|----------------------------------------|



E|------------------------------------------------|
B|------------------------------------------------|
G|-------------------------------9-10-9-10-9-7----|
D|-10-12-10-12-10-12-10-12-10-12---------------10-|
A|------------------------------------------------|
E|------------------------------------------------|



E|--------------------------------------------------|
B|--------------------------------------------------|
G|-------------------------------14-12-9-12-9-------|
D|-10-12-10-12-10-12-10-12-10-10--------------12-10-|
A|--------------------------------------------------|
E|--------------------------------------------------|



E|------------------------------------------------|
B|------------------------------------------------|
G|-------------------------------9-10-9-10-9-7----|
D|-10-12-10-12-10-12-10-12-10-12---------------10-|
A|------------------------------------------------|
E|------------------------------------------------|


Pre-Chorus

E|--------------------------------------------------------------|
B|----13-12-13----15-13-15----17-18-17-18-17-15-13~-------------|
G|-12----------12----------12-----------------------------------|
D|--------------------------------------------------------------|
A|--------------------------------------------------------------|
E|--------------------------------------------------------------|


Chorus

E|--------------------------------------------------------------|
B|----13-12-10--------------------------------------------------|
G|-12----------12-12--------------------------------------------|
D|-------------------12-14-15-14-15-14-15-14-12-10--------------|
A|--------------------------------------------------------------|
E|--------------------------------------------------------------|



E|--------------------------------------------------------------|
B|----13-12-10--------------------------------------------------|
G|-12----------12-12--------------------------------------------|
D|-------------------12-14-15-14-15-14-15-17-19-17--------------|
A|--------------------------------------------------------------|
E|--------------------------------------------------------------|



E|-----------------------------------------------------------------|
B|----13-12-10-----------------------------------------------------|
G|-12----------12-12-----------------------------------------------|
D|-------------------12-14-15-14-15-14-15-14-12-10-9/10-10-12-10~--|
A|-----------------------------------------------------------------|
E|-----------------------------------------------------------------|



E|----------------|
B|----------------|
G|----------------|
D|-10-10-12-12bp9-|
A|----------------|
E|----------------|
2.073 exibições

Comentários 0

Exibir acordes »
publicidade
fechar