Harpa Cristã

Grandioso És Tu

51.171 exibições
Tom: A (com acordes na forma de )

E|----------1--1-1-|------1--1-1-3-3-|-----3----3--3-3-|-1-------1-------|
B|----------3--3-3-|-3----3--3-3-4-4-|-4---4----4--4-2-|-3----3--3-6-4-4-|
G|----------3--3-3-|-3----3--3-3-3-3-|-3---3----3--3-3-|-3----3--3-7-5-5-|
D|-----------------|-3---------------|-5-------------2-|-3----3--3-5-7-7-|
A|----------1--1-1-|-1----1--1-1-6-6-|-6---6----6--6---|-----------8-8-8-|
E|-----------------|-----------------|-----------------|-----------------|



E|----------1--1-1-|------1--1-1-3-3-|-----3----3--3-3-|-1-------1-------|
B|-3--------3--3-3-|-3----3--3-3-4-4-|-4---4----4--4-2-|-3----3--3-6-4-4-|
G|-3--------3--3-3-|-3----3--3-3-3-3-|-3---3----3--3-3-|-3----3--3-7-5-5-|
D|-3---------------|-3---------------|-5-------------2-|-3----3--3-5-7-7-|
A|----------1--1-1-|-1----1--1-1-6-6-|-6---6----6--6---|-----------8-8-8-|
E|-6---------------|-----------------|-----------------|-----------------|



E|---------------6-|-10---8--6-5-6---|----------6--6----|-----------------|
B|----------6--6---|-6----9--8-7-8-8-|-6-------------10-|----------4--8-6-|
G|-7--------7--7-7-|------7--8-8-8-8-|-7--------7--7-8--|-5--------5--8-7-|
D|-8--------8--8-8-|-8-------------8-|-8----------------|-7--------7--7-7-|
A|-8---------------|---------6-6-6-6-|----------8--8-8--|-8--------8--8-8-|
E|-6--------6--6-6-|-6----6----------|-6--------6--6-8--|-----------------|



E|---------------6-|-10---8--6-5-6---|----------6--5-6-|-8--------10-11-13-|
B|----------6--6---|-6----9--8-7-8-8-|-6--------6--6-6-|----------0--8--10-|
G|-7--------7--7-7-|------7--8-8-8-8-|-7-----------8-7-|-8--------12----8--|
D|-8--------8--8-8-|-8-------------8-|-8--------8------|-5--------0--10----|
A|-8---------------|---------6-6-6-6-|----------5------|-6--------------8--|
E|-6--------6--6-6-|-6----6----------|-6-----------8-6-|-------------8-----|



E|--------------|
B|--------------|
G|--------------|
D|--------------|
A|--------------|
E|-6------------|
    Composição: Karl Gustav Boberg, em 1886Colaboração e revisão:
    • Helon C.O.

    Comentários 0

    conseguiu tocar?

    covers

    Grave um vídeo tocando Grandioso És Tu e mande pra gente!

    Ex.: http://www.youtube.com/watch?v=0IvSvIwGdwk
    ver covers de outras músicas »
    0:00 / 0:00

    Capítulos

      1 versão de gaitaexibiçõescontribuição e correção
      1 versão de Guitar Proformatodownloadscontribuição
      2 versões de partiturasformatodownloadscontribuição
      play/pausefechar subir/descer velocidade
      6ª corda E5ª corda A4ª corda D3ª corda G2ª corda B1ª corda E
        Exibir acordes
        Feedback
        publicidad
        fechar
        ok