I Wouldn't Mind

He Is We

 He Is We
Tom: C
		
Intro:

Base: Am  F  C  G

Dedilhado:

E|-----------------3--------3-----------3--------------0--------|
B|---------0h1--------1--------1--------------1-----------1-----|
G|------2-------2--------2-----------2-----2-----2--------------| (4x)
D|--------------------------------------------------------------|
A|---0----------------------------3-----------------2-----------|
E|--------------------------------------------------------------|



E|----------------3--------3--------0--1--3~----------|
B|--------0h1--------1--------1-----------3~----------|
G|-----2-------2--------2-----------------0~----------|
D|----------------------------------------0~----------|
A|--0----------------------------3--------2~----------|
E|----------------------------------------3~----------|


Am           F                 C
Merrily we fall out of line
       G
Out of line
Am           F
I'd fall anywhere with you
      C          G
I'm by your side
Am                F
Swinging in the rain
          C              G
Humming melodies
Am                  F                    C                  G
We're not going anywhere until we freeze.

pré-refrão:


E|--------0-----0--------0-----0--------0-----0--------3-----0-----|
B|--------1-----1--------1-----1--------1-----1--------1-----1-----|
G|-----------------------------------------------------------------|
D|-----------------------------------------------3--3-----3--------|
A|--0--0-----0-----2--2-----2-----3--3-----3-----------------------|
E|-----------------------------------------------------------------|



E|--------0-----0--------0-----0--------0-----0--3~----------------|
B|--------1-----1--------1-----1--------1-----1--3~----------------|
G|-----------------------------------------------0~----------------|
D|-----------------------------------------------0~----------------|
A|--0--0-----0-----2--2-----2-----3--3-----3-----2~----------------|
E|-----------------------------------------------3~----------------|


Am  F    C     G      Am
I'm not afraid anymore
F   C            G
I'm not afraid.

Refrão:
F      C         Am       G
Forever is a long time.
F    C                          Am         G
But I wouldn't mind spending it by your side.

Am                F                   C           G
Carefully we'll place for our destiny
Am                 F
You came and you took this heart
    C        G
And set it free.
Am                        F                           C     G            Am
Every word you write and sing is so warm to me.
F    C              G
So warm to me.
Am          F      C
I'm torn  I'm torn
G   Am   F              C       G
To be right where you are.

pré-refrão:
Am  F    C     G      Am
I'm not afraid anymore
F   C            G
I'm not afraid.

Refrão:
F      C         Am       G
Forever is a long time.
F    C                          Am         G
But I wouldn't mind spending it by your side.
F
Tell me everyday
C                      Am      G
I get to wake up to that smile.
F                              C
I wouldn't mind it at all.
Am                           G
I wouldn't mind it at all.

Ponte:


E|--------3-----------3-----------3-----------3---------------|
B|-----------1-----------1-----------1-----------1------------|
G|-----2-----------2-----------2-----------2------------------| (3x)
D|--3-----------2-----------0---------------------------------|
A|--------------------------------------3---------------------|
E|------------------------------------------------------------|



E|--------3-----------3-----------3---------3-----------------|
B|-----------1-----------1-----------1------1-----------------|
G|-----2-----------2-----------2------------0-----------------|
D|--3-----------2-----------0---------------2-----------------|
A|------------------------------------------3-----------------|
E|------------------------------------------------------------|


Am   F    C
You so know me.
Am    F     C
Pinch me gently.
Am   F      C
I can hardly breath.

Refrão:
F     C            Am       G
Forever is a long time.
F       C                                              Am         G
But I wouldn't mind spending it by your side.
F
Tell me everyday
C                                Am    G
I get to wake up to that smile.
                 F                   C
I wouldn't mind it at all.
                 Am                G
I wouldn't mind it at all.
179.172 exibições

Comentários 92

  • Maysa Maysa: Postado em 15/12/2014 20:44

    video aula ! Pleaceee !

  • jorge.gomes.5494 jorge.gomes.5494: Postado em 06/12/2014 22:17

    video aula cifa club

  • madsonbreno madsonbreno: Postado em 04/12/2014 23:26

    Aula .. please

  • vitor.urazaki vitor.urazaki: Postado em 04/12/2014 14:39

    Cifra faz uma video aula dessa música pfv :)

  • Luiz Paulo Luiz Paulo: Postado em 20/11/2014 16:03

    Na boa a vídeo-aula iria ajudar bastante mesmo

  • Klaus Klaus: Postado em 30/10/2014 13:40

    Video aula cifra club pf ^^

  • israel israel: Postado em 22/10/2014 14:43

    Cifra Club ,,,,, manda logo o vídeo

  • Hércules Hércules: Postado em 29/08/2014 17:20

    Consegui fazer um pouco parecido com a música original, mas uma vídeo-aula não seria um má ideia!

  • amisterd amisterd: Postado em 03/08/2014 19:25

    musicas como essa tem q ter o video do leo Eymard !

  • Itachi Itachi: Postado em 02/08/2014 18:13

    video aula por favor cifra club

Exibindo 10 de 92 comentários Mostrar mais ver todos »
Composição: Sabe quem é o compositor? Envie pra gente. Contribuição: B_Doss Correções: ueslo , tx@i e mais 8 »
Exibir acordes »
publicidade
fechar