Eis Que Um Anjo Proclamou

Hinário Novo Cântico

Sem foto do Hinário Novo Cântico
Tom: 
		

E|-2-0------0-|-2-3-5----|-7-9-10--9-|-7--------|-7-9-10--9-|-7-------7-|
B|-----3------|----------|-----------|-----10---|-----------|-----10----|
G|------------|----------|-----------|----------|-----------|-----------|
D|------------|----------|-----------|----------|-----------|-----------|
A|------------|----------|-----------|----------|-----------|-----------|
E|------------|----------|-----------|----------|-----------|-----------|



E|-9---10--5-|-3---2----|-2-0------0-|-2-3-5----|-7-9-10--9-|-7--------|
B|-----------|----------|-----3------|----------|-----------|-----10---|
G|-----------|----------|------------|----------|-----------|----------|
D|-----------|----------|------------|----------|-----------|----------|
A|-----------|----------|------------|----------|-----------|----------|
E|-----------|----------|------------|----------|-----------|----------|



E|-7-9-10--9-|-7-------7-|-9---10--5-|-3---2----|-2-0------0-|-2-3------|
B|-----------|-----10----|-----------|----------|-----3------|-----10---|
G|-----------|-----------|-----------|----------|------------|----------|
D|-----------|-----------|-----------|----------|------------|----------|
A|-----------|-----------|-----------|----------|------------|----------|
E|-----------|-----------|-----------|----------|------------|----------|



E|-10-9------|----------|-----10--9-|------------|-9---10-----|-3---2----|
B|------12---|-12--10---|-----------|-12--10--12-|---------10-|----------|
G|-----------|----------|-----------|------------|------------|----------|
D|-----------|----------|-----------|------------|------------|----------|
A|-----------|----------|-----------|------------|------------|----------|
E|-----------|----------|-----------|------------|------------|----------|



E|-2-0------0-|-2-3------|-10-9------|----------|-----10--9-|------------|
B|-----3------|-----10---|------12---|-12--10---|-----------|-12--10--12-|
G|------------|----------|-----------|----------|-----------|------------|
D|------------|----------|-----------|----------|-----------|------------|
A|------------|----------|-----------|----------|-----------|------------|
E|------------|----------|-----------|----------|-----------|------------|



E|-9---10-----|----------|----------|
B|---------10-|----------|----------|
G|------------|-12--11---|----------|
D|------------|----------|----------|
A|------------|----------|----------|
E|------------|----------|----------|
279 exibições

Comentários 0

Consegui tocarAinda não conseguiram tocar essa música. Seja o primeiro!
    Não consegui tocar
    Exibir acordes »
    publicidade
    fechar