Tom: G
		



E|0----2----3----2----0----------------0------------------
B|--------------------------3----0-------------3------0----
G|---------------------------------------------------------
D|---------------------------------------------------------
A|---------------------------------------------------------
E|----------------------------------------------------------








E|0----2----3----2----0-----2----3-----5----5------2-------
B|-----------------------------------------------------
G|---------------------------------------------------------
D|---------------------------------------------------------
A|---------------------------------------------------------
E|----------------------------------------------------------







E|0----2----3----7----7-----7-------5----3-----2------0------3---2--------0-
B|--- ----------------------------------------------------------------3-----
G|--------------------------------------------------------------------------
D|-------------------------------------------------------------------------
A|--------------------------------------------------------------------------
E|-------------------------------------------------------------------------



Em             D           C      B
    Sim, sofrimento te causei, ó Deus
Em             D              C    B
    E ao meu exemplo o fraco tropeçou
Em              D       C             Am
    E eu não andei nos bons caminhos teus
       Bm     Em    Am
    Perdão, Senhor!

Em              D           C     B
    Sim, vão e fútil foi o meu falar
Em             D            C      B
    E amor ao meu irmão não demonstrei
Em           D      C          Am
    Ao sofredor eu não quis ajudar
       Bm     Em    Am
    Perdão, Senhor!

Em             D           C     B
    Sim, negligente foi o meu viver
Em             D         C      B
    Sem me dispor a pelejar por ti
Em              D     C                 Am
    E firme em teu trabalho eu não quis ser
       Bm     Em    Am
    Perdão, Senhor!

Em             D           C   B
    Escuta, ó Deus a minha oração
Em           D           C     B
    E vem livrar-me do pecado vil.
Em          D     C       Am
    Renova este pobre coração!
      Bm     Em     Am   Em
    Amém, Senhor!
5.942 exibições

Comentários 0

Composição: Sabe quem é o compositor? Envie pra gente. Contribuição: dberbert Correções: Rebeca »
Consegui tocarAinda não conseguiram tocar essa música. Seja o primeiro!
    Não consegui tocar
    Exibir acordes »
    publicidade
    fechar