Hino Rio Grandense

Hinos

 Hinos
Tom: C
		

E|-----------------------------------------------------
B|-------8--7-5----------------------------------------
G|-4-5-7--------7-4--7-7-5----4------7-----------------
D|--------------------------7----5-7-------------------
A|-----------------------------------------------------
E|-----------------------------------------------------



E|-----------------------------------------------------
B|-------8--8-7-5-8-8-8-7-5-7----7-5-------------------
G|-4-5-7-----------------------------7-4-4-------------
D|-----------------------------------------------------
A|-----------------------------------------------------
E|-----------------------------------------------------



E|------------------------------------------------------8-5-5--------5-7-----
B|---------------------------------------8---5-5-6-6-5--------8--7-8-----8-5-
G|-7-5--7-7-5--7-4----7-5--7-7-5--7-4------7---------------------------------
D|-----------------5------------------5--------------------------------------
A|---------------------------------------------------------------------------
E|---------------------------------------------------------------------------



E|-8-5-5-----------------------------------------------
B|-------8----5-7-8-8-----5---5-7-8-8------5---5-7-8-8-
G|----------7---------7-7---7----------7-7---7---------
D|-----------------------------------------------------
A|-----------------------------------------------------
E|-----------------------------------------------------
40.507 exibições

Comentários 2

  • ariel.7198 ariel.7198: Postado em 20/11/2012 11:19

    Vergonha de ser brasileiro... mas orgulho de ser gaucho \m/

  • brunoroxs brunoroxs: Postado em 26/09/2012 22:32

    Sirvam nossas façanhas de modelo a toda terra !

Composição: Sabe quem é o compositor? Envie pra gente. Contribuição: Jhon Correções: Dênis S. Arnold e mais 1 »
Exibir acordes »
publicidade
fechar