Ponto de Equilibrio

Hugo Pena

 Hugo Pena
Tom: F#
		
Intro: D#m  B  F#  C#

D#m
As vezes sinto as pernas bambas
                  B9
Sinto me faltar o ar
                                  F#
É ofegante coração parece vai parar
                                        C#
E a visão que te procura em meio tanta gente
D#m                                       B9
Cada motivo é um motivo pra eu te procurar
                                       F#
Inseguranças, incerteza querem me barrar

A cada passo é um tropeço
                  C#
Eu to indo pra guerra
   Bbm                                 B9
É confusão de sentimentos no meu coração
                                          G#m
Eu travo em sua frente sinto gelo minhas mãos
                                        C#
E mesmo assim tive coragem e vou te dizer

Refrão:
                  D#m
Meu ponto de equilíbrio
                   B9
O meu comando é você é tudo que eu preciso
                F#
A força que me faz viver
                      C#
Então devolva de uma vez o que levou de mim
                  D#m
Meu ponto de equilíbrio
                  B9
O meu comando é você é tudo que eu preciso
                F#
A força que me faz viver
                     C#
Amor perfeito tem começo, meio e não tem fim.

( D#m  B  F#  C# )  (2x)

solo de gaita

   Bbm                                 B9
É confusão de sentimentos no meu coração
                                          G#m
Eu travo em sua frente sinto gelo minhas mãos
                                        C#
E mesmo assim tive coragem e vou te dizer

Refrão:
                  D#m
Meu ponto de equilíbrio
                   B9
O meu comando é você é tudo que eu preciso
                F#
A força que me faz viver
                      C#
Então devolva de uma vez o que levou de mim
                  D#m
Meu ponto de equilíbrio
                  B9
O meu comando é você é tudo que eu preciso
                F#
A força que me faz viver
                     C#
Amor perfeito tem começo, meio e não tem fim.


( D#m  B  F#  C# ) (2x)
E|-14-13-14-13-14-13-14-13-11-9-11-9-11-9-9------9------------------|
B|------------------------------------------9/11---11-9--7-6--------|
G|-----------------------------------------------------------8-6-8--|
D|------------------------------------------------------------------|
A|------------------------------------------------------------------|
E|------------------------------------------------------------------|



E|-14-14-14-14--9-9-9--9/11----------9------------------------------|
B|------------------------------9/11---11-9-7-6---------------------|
G|----------------------------------------------8-6-6/8-------------|
D|------------------------------------------------------------------|
A|------------------------------------------------------------------|
E|------------------------------------------------------------------|

Comentários 0

Composição: Sabe quem é o compositor? Envie pra gente. Contribuição: atosl Correções: barapesada e mais 2 »
Exibir acordes »
publicidade
fechar