Power Acordes

Instruções

Sem foto do Instruções
Tom: G
		
POWER ACORDES

Power chord é uma técnica de execução de acordes geralmente usado em guitarras
eléctricas distorcidas.

TÉCNICAS

O Power chord é feito tocando a nota tônica - podendo ser usada tanto a mais
grave quanto oitava (ou ambas) - e a quinta nota de uma escala.O Power Chord
não difere entre notas maiores ou menores, mas existem variações. São largamente
usados em ritmos vindos do Rock, principalmente no punk rock e no metal.
É descrito nas cifras como sendo o acorde seguido de um 5 - em alusão à
quinta nota -, como por exemplo C5 (um dó em power chord),
ou simplesmente é citado como um acorde maior.

Ele também pode ser executado tocando-se somente a tônica e a oitava de
uma escala, em uma técnica também conhecida como oitavada.
Por omitir a terça nota de sua formação, o Power chord torna sua
execução indiferente para notas menores e maiores, ou até para
outras variações mais complexas. Em contrapartida, o contexto
musical dá uma referência de maior ou menor à nota.

Origem:
http://pt.wikipedia.org/wiki/Power_chord

ALGUNS EXEMPLOS DOS POWER ACORDES MAIS USADOS:
ELES TÊM MUITAS VARIAÇÕES:


  A5  B5  C5  D5  E5       F5 G5
E|---|---|---|---|-------|---|---|
B|---|---|---|---|-------|---|---|
G|-2-|-4-|-5-|-7-|-9-----|---|---|
D|-2-|-4-|-5-|-7-|-9---2-|-3-|-5-|
A|-0-|-2-|-3-|-5-|-7---2-|-3-|-5-|
E|---|---|---|---|-----0-|-1-|-3-|



  A#5 C#5 D#5 F#5 G#5
E|---|---|---|---|---|
B|---|---|---|---|---|
G|-3-|-6-|-8-|---|---|
D|-3-|-6-|-8-|-4-|-6-|
A|-1-|-4-|-6-|-4-|-6-|
E|---|---|---|-2-|-4-|



  Ab5 Bb5 Db5 Eb5 Gb5
E|---|---|---|---|---|
B|---|---|---|---|---|
G|---|-3-|-6-|-8-|---|
D|-6-|-3-|-6-|-8-|-4-|
A|-6-|-1-|-4-|-6-|-4-|
E|-4-|---|---|---|-2-|


EXEMPLOS DE POWER ACORDES FAMOSOS:
SMELLS LIKE TEEN SPIRIT - NIRVANA

    F5         A#5     G#5        C#5
E|-------------------------------------|
B|-------------------------------------|
G|------------3-3-3--------------6-6-6-|
D|-3-3-3------3-3-3---6-6-6------6-6-6-|
A|-3-3-3-xxxx-1-1-1---6-6-6-xxxx-4-4-4-|
E|-1-1-1-xxxx---------4-4-4-xxxx-------|

MASTER OF PUPPETS - METALLICA


  E5   D5 C#5 C5
E|--------------|
B|--------------|
G|--------------|
D|-9----7--6--5-|
A|-7----5--4--3-|
E|-0------------|



                 D5 C#5 C5
E|-------------------------|
B|-------------------------|
G|-------------------------|
D|----------------7--6--5--|
A|------7-----6---5--4--3--|
E|--0-0---0-0--------------|



E|-------------------------|
B|-------------------------|
G|-------------------------|
D|-------------------------|
A|-----2----3---4---3---2-2|
E|-0-1---1----1---1---1----|



   G5 slide para F#5
E|-----------------------|
B|-----------------------|
G|-----------------------|
D|-----------------------|
A|--5/4-----5/4-----5/4--|
E|--3/2--0--3/2--0--3/2--|


TNT - AC/DC
Nos versos:

  E5  G5 A5
E|---------------------------|
B|---------------------------|
G|---------------------------|
D|-2---5-7-------------------|
A|-2---5-7-------------------|
E|-0---3-5--3-5-3------------|


I LOVE ROCK N ROLL - JOAN JETT AND THE BLACK HEARTS

   E5            A5    B5        E5            A5 B5 A5 E5
E|-----------------------------|---------------------------|
B|-----------------------------|---------------------------|
G|---------------2-2---4-4-----|---------------2-2-4-2-----|
D|-2-2---2-2-----2-2---4-4-----|-2-2---2-2-----2-2-4-2-2-2-|
A|-2-2---2-2-----0-0---2-2-----|-2-2---2-2-----0-0-2-0-2-2-|
E|-0-0---0-0-0h3-----------0h3-|-0-0---0-0-0h3---------0-0-|


SMOKE ON THE WATER - DEEP PURPLE
INTRODUÇÃO (1 vez):

   G5  Bb5 C5   G5  Bb5 Db5 C5  G5  Bb5 C5   Bb5 G5
E|--------------------------------------------------|
B|--------------------------------------------------|
G|--------------------------------------------------|
D|-----3---5--------3---6---5-------3---5----3------|
A|-5---1---3----5---1---4---3---5---1---3----1---5--|
E|-3------------3---------------3----------------3--|

Outro: várias vezes:

E|--------------------------------------------|
B|--------------------------------------------|
G|---0----3----5----0--3--6--5--0--3--5--3--0-|
D|---0----3----5----0--3--6--5--0--3--5--3--0-|
A|--------------------------------------------|
E|--------------------------------------------|


E por aí vai.Existem mais milhões de riff power
acordes famosos.Mas só me lembrei desses aí.
Texto Colunas
Alterar tom ½ tom ½ tom
afinação acordes na letra esconder tabs mais »
49.479 exibições

Comentários (4)

  • shai shai: Postado em 25/01/2014 15:54

    lol fodao o video

  • daniebba daniebba: Postado em 18/07/2013 18:12

    eeae

  • Gustavo Gustavo: Postado em 31/03/2013 00:23

    mt bom vlww

  • xxbrendonxx xxbrendonxx: Postado em 19/03/2012 07:15

    excelente!!!

  1. Tudo Que Você Quiser - Luan Santana Manteve-se 5.838 exibições
  2. Lepo Lepo - Psirico Manteve-se 4.258 exibições
  3. Mozão - Lucas Lucco Manteve-se 4.092 exibições
  4. Logo Eu - Jorge e Mateus Manteve-se 3.677 exibições
  5. Gaveta - Fernando e Sorocaba Manteve-se 3.251 exibições
  6. Só Os Loucos Sabem - Charlie Brown Jr. Manteve-se 2.945 exibições
  7. Pra Você - Onze:20 Manteve-se 2.783 exibições
  8. Tempo Perdido - Legião Urbana Manteve-se 2.356 exibições
  9. Fui Fiel - Gusttavo Lima Manteve-se 2.236 exibições
  10. Na Linha do Tempo - Victor e Leo Manteve-se 2.111 exibições
  1. Jorge e Mateus- Manteve-se 22.167 exibições
  2. Legião Urbana- Manteve-se 19.327 exibições
  3. Luan Santana- Manteve-se 17.248 exibições
  4. Charlie Brown Jr.- Manteve-se 16.750 exibições
  5. Fernandinho- Manteve-se 14.218 exibições
  6. Thalles Roberto- Manteve-se 10.904 exibições
  7. Católicas- Manteve-se 10.314 exibições
  8. Aline Barros- Manteve-se 10.062 exibições
  9. Victor e Leo- Manteve-se 10.039 exibições
  10. Gusttavo Lima- Manteve-se 9.893 exibições
Exibir acordes »

Cifras e tabs

Fórum Cifra Club

Aprenda

Cifra Club News

Mais Serviços Cifra Club ID

Studio Sol

©1996 - 2014 Cifra Club · o primeiro, maior e mais acessado do Brasil · 329 mil músicas · 5.9 milhões pessoas cadastradas

publicidade
fechar