Eu Não Aceito Sem Você

Israel e Rodolffo

 Israel e Rodolffo
Tom: C
		
Intro:F G Em Am Dm G7 C


E|---------------------------------------------------------------------------|
B|---------------------------------------------------------------------------|
G|---------------------------------------------------------------------------|
D|---------0-2-3-2-0-------------2---2-3-5-3-2-----2-3-5-3-2--3----2-3-2-0---|
A|-3-2-0---------------2-3-5-3-2---------------3-----------------------------|
E|-------1-----------3----------------------------------------------------3--|



E|---------------------------------------0--0--|
B|---------------1-0---------------------1--1--|
G|-------------------2-0-----------------0--0--|
D|------------------------3-2-0----------2--2--|
A|-0-2-3-2-0--3------------------3-3------3--3-|
E|---------------------------------------X--X--|


C
Não é que quis

Mas se aqui fiz
            Dm
Então me ajude
           G
Se aconteceu

Eu não fui eu
           C             G
Eu sei não sou assim

Se magoei
       C7
Se te enganei
F
Tô dividido entre querer e te esquecer

Não sei se engano ou desengano
C
Certo ou errado estou te amando

G                      C
Eu não me aceito sem você
C                                       Dm
Mande um localizador pra ver se me sintonizo
                      G                  C
Qualquer prova desse amor é o rumo que preciso
             C7                        F
Fala pro meu coração que essa ira é passageira
                       C
Que o nosso amor é de aço
G                      C
Pra durar a vida inteira 2(X)
SOLO:

E|---------------------------------------------------------------------------|
B|---------------------------------------------------------------------------|
G|---------------------------------------------------------------------------|
D|---------0-2-3-2-0-------------2---2-3-5-3-2-----2-3-5-3-2--3----2-3-2-0---|
A|-3-2-0---------------2-3-5-3-2---------------3-----------------------------|
E|-------1-----------3----------------------------------------------------3--|



E|---------------------------------------0--0--|
B|---------------1-0---------------------1--1--|
G|-------------------2-0-----------------0--0--|
D|------------------------3-2-0----------2--2--|
A|-0-2-3-2-0--3------------------3-3------3--3-|
E|---------------------------------------X--X--|


C
Se magoei
       C7
Se te enganei
        F
Tô dividido entre querer e te esquecer

Não sei se engano ou desengano
C
Certo ou errado estou te amando

G                      C
Eu não me aceito sem você
C                                       Dm
Mande um localizador pra ver se me sintonizo
                       G                  C
Qualquer prova desse amor é o rumo que preciso
             C7                        F
Fala pro meu coração que essa ira é passageira
                       C
Que o nosso amor é de aço
G                      F Fm C
Pra durar a vida inteira
5.318 exibições

Comentários 1

  • Guilherme Guilherme: Postado em 05/12/2013 09:20

    como fica o solo em Mi maior?

Composição: Sabe quem é o compositor? Envie pra gente. Contribuição: Daniel Correções: Roger e mais 2 »
Exibir acordes »
publicidade
fechar