Mais Um Sonhador

João Neto e Frederico

 João Neto e Frederico
Tom: D
		

Intro: D  G  Bm  A  Em  F#m  G
E|--------------------------------------------------------|
B|--7-5-5h7--------7-5-5h7--------7-5-5h7-----------------|
G|----------7-2h4----------7-7h9----------7--4-4-4-4-4-4--|
D|--------------------------------------------------------|
A|--------------------------------------------------------|
E|--------------------------------------------------------|



   Bm                  G
De onde é que vem essa tal de solidão
          D                      A
De que espaço, que planeta rasga o meu coração
   Bm                    G
De onde é que vem tanto amor descontrolado
        D                      A
Rasga o peito, para tudo, sentimento detonado
F#m            G
É que as vezes sem querer me falta o chão
D                        A                      F#m
Eu não sei mais pra onde ir eu tô de coração na mão
                  G
Nem mesmo o tempo é capaz de me curar
D                      A                          G  A
Sou prisioneiro da paixão não sei se vou me libertar

Refrão 2x:
       D                  Bm
Eu queria ter um disco voador,
                            F#m                G
Pra ir pra longe, só que eu sou apenas mais um sonhador,
       D                      Bm
Eu queria ter poder pra controlar o sentimento,
     F#m                       G        A
Não chorar, pra nunca mais sofrer de amor

( D  G  Bm  A  Em  F#m  G )


E|---------------------------------------------|
B|--7-5-5h7--------7-5-5h7--------7-5-5h7------|
G|----------7-2h4----------7-7h9----------7-4--|
D|---------------------------------------------|
A|---------------------------------------------|
E|---------------------------------------------|



F#m            G
É que as vezes sem querer me falta o chão
D                        A                      F#m
Eu não sei mais pra onde ir eu tô de coração na mão
                  G
Nem mesmo o tempo é capaz de me curar
D                      A                          G  A
Sou prisioneiro da paixão não sei se vou me libertar

Refrão 4x:
       D                  Bm
Eu queria ter um disco voador,
                            F#m                G
Pra ir pra longe, só que eu sou apenas mais um sonhador,
       D                      Bm
Eu queria ter poder pra controlar o sentimento,
20.413 exibições

Comentários 2

  • Tii Tii: Postado em 03/01/2012 13:39

    video aula é com os caras só auheuahe
    acabei de colocar o solo da introdução

  • fesena fesena: Postado em 17/09/2011 15:06

    Coloca uma video aula dessa musica ae?

Composição: Sabe quem é o compositor? Envie pra gente. Contribuição: tiago_hcs Correções: tiago_hcs »
Exibir acordes »
publicidade
fechar