No More Bolero

Gerard Joling

 Gerard Joling
Tom: F
		
Intro: F  Gm7  Dm  Gm7  Dm  Gm7  Bb  F  Gm  Gm7  F

F
What can I say
There´s an empty place
Where your Love

          C F C
filled my life
And I know
That a part of you will always be
            F
a part of me

(F)
One summer night
And the sky is
full of wishes
That won´t
C
Arrive
How can it be
In a world without your eyes
          F
To look at me

(Refrão)

Bb
No more boleros
No more nights
To dance
    F
The dance of love
        C
Only lonely hearts
            F F F
No more boleros

F
I hear the song
And your arms always
Made me
 C
Feel so warm
Now you´re gone
I´ll be dancing on
    F
alone

(Refrão)

Bb
No more boleros
No more nights
To dance
             F
The dance of love
        C
Only lonely hearts
            F F F
No more boleros

E|-------8~-7-8-10-8-7-5-8-8-5-8-7-8-10-------------|
B|--------------------------------------------------|
G|--------------------------------------------------|
D|--------------------------------------------------|
A|--------------------------------------------------|
E|--------------------------------------------------|



E|----------------------------------------------|
B|--------5-7-5---------------------------------|
G|--------------7-5-4-7-4-----------------------|
D|-------------------------7-5------------------|
A|----------------------------------------------|
E|----------------------------------------------|

1.198 exibições

Comentários 0

Consegui tocarAinda não conseguiram tocar essa música. Seja o primeiro!
    Não consegui tocar
    Exibir acordes »
    publicidade
    fechar