BB Good

Jonas Brothers

 Jonas Brothers
Tom: B
		
(intro)


    B5   D#5 E5        A5      B5   D#5 E5         A5  A#5
E|------------|-------------|------------|---------------|
B|------------|-------------|------------|---------------|
G|-------8--9-|-9-----------|-------8--9-|-9-9-----------|
D|-9-----8--9-|-9--xx-7--7--|-9-----8--9-|-9-9--xx-7--8--|
A|-9-----6--7-|-7--xx-7--7--|-9-----6--7-|-7-7--xx-7--8--|
E|-7----------|----xx-5--5--|-7----------|------xx-5--6--|


(verso)

    B5   D#5 E5       F#5  B5       D#5 E5           A5
E|------------|-------------|-------------|---------------|
B|------------|-------------|-------------|---------------|
G|-------8--9-|-9-----11----|-------8--9--|-9-9-----------|
D|-9-----8--9-|-9-----11----|-9-----8--9--|-9-9--xx-7--7--|
A|-9-----6--7-|-7-----9---9-|-9-----6--7--|-7-7--xx-7--7--|
E|-7----------|-----------7-|-7-----------|------xx-5--5--|



    B5   D#5 E5       F#5  B5       D#5 E5           A5 A#5
E|------------|-------------|-------------|---------------|
B|------------|-------------|-------------|---------------|
G|-------8--9-|-9-----11----|-------8--9--|-9-9-----------|
D|-9-----8--9-|-9-----11----|-9-----8--9--|-9-9--xx-7--8--|
A|-9-----6--7-|-7-----9---9-|-9-----6--7--|-7-7--xx-7--8--|
E|-7----------|-----------7-|-7-----------|------xx-5--6--|


(refrão 2x)

    B5   D#5 E5        A5      B5   D#5 E5         A5  A#5
E|------------|-------------|------------|---------------|
B|------------|-------------|------------|---------------|
G|-------8--9-|-9-----------|-------8--9-|-9-9-----------|
D|-9-----8--9-|-9--xx-7--7--|-9-----8--9-|-9-9--xx-7--8--|
A|-9-----6--7-|-7--xx-7--7--|-9-----6--7-|-7-7--xx-7--8--|
E|-7----------|----xx-5--5--|-7----------|------xx-5--6--|


(pós-refrão)

E|-----------------|-----------------|-------------------|---------|
B|-----------------|-----------------|-------------------|--11^12--|
G|--4/6-----8------|--8/9-------8----|---11------9-------|---------|
D|------7----------|-------11-----9--|------13-----11-11-|---------|
A|------------9-9--|-----------------|-------------------|---------|
E|-----------------|-----------------|-------------------|---------|

                                                         
(verso)

    B5   D#5 E5       F#5  B5       D#5 E5           A5
E|------------|-------------|-------------|---------------|
B|------------|-------------|-------------|---------------|
G|-------8--9-|-9-----11----|-------8--9--|-9-9-----------|
D|-9-----8--9-|-9-----11----|-9-----8--9--|-9-9--xx-7--7--|
A|-9-----6--7-|-7-----9---9-|-9-----6--7--|-7-7--xx-7--7--|
E|-7----------|-----------7-|-7-----------|------xx-5--5--|



    B5   D#5 E5       F#5  B5       D#5 E5           A5 A#5
E|------------|-------------|-------------|---------------|
B|------------|-------------|-------------|---------------|
G|-------8--9-|-9-----11----|-------8--9--|-9-9-----------|
D|-9-----8--9-|-9-----11----|-9-----8--9--|-9-9--xx-7--8--|
A|-9-----6--7-|-7-----9---9-|-9-----6--7--|-7-7--xx-7--8--|
E|-7----------|-----------7-|-7-----------|------xx-5--6--|



                                                     E5     A5
E|-----------------|-----------------|-----------------|---------|
B|-----------------|-----------------|-----------------|---------|
G|-----------------|-----------------|---------------9-|---------|
D|-----------------|-----------------|---------------9-|---7-7-7-|
A|-----------6-6-7-|-7-7-7-7-7-9-9---|-----------6-6-7-|---7-7-7-|
E|-7-7-7-7-7-------|---------------7-|-7-7-7-7-7-------|---5-5-5-|
  |-PM----------------------------------------------|



    B5   D#5 E5       F#5  B5       D#5 E5           F#5
E|------------|-------------|-------------|---------------------|
B|------------|-------------|-------------|---------------------|
G|-------8--9-|-9-----11----|-------8--9--|-9-9-9-9-11-11-11-11-|
D|-9-----8--9-|-9-----11----|-9-----8--9--|-9-9-9-9-11-11-11-11-|
A|-9-----6--7-|-7-----9---9-|-9-----6--7--|-7-7-7-7-9--9--9--9--|
E|-7----------|-----------7-|-7-----------|---------------------|


(refrão)

    B5   D#5 E5        A5      B5   D#5 E5         A5  A#5
E|------------|-------------|------------|---------------|
B|------------|-------------|------------|---------------|
G|-------8--9-|-9-----------|-------8--9-|-9-9-----------|
D|-9-----8--9-|-9--xx-7--7--|-9-----8--9-|-9-9--xx-7--8--|
A|-9-----6--7-|-7--xx-7--7--|-9-----6--7-|-7-7--xx-7--8--|
E|-7----------|----xx-5--5--|-7----------|------xx-5--6--|



    B5   D#5 E5        A5      B5   D#5 E5         A5  G#5
E|------------|-------------|------------|---------------|
B|------------|-------------|------------|---------------|
G|-------8--9-|-9-----------|-------8--9-|-9-9-----------|
D|-9-----8--9-|-9--xx-7--7--|-9-----8--9-|-9-9--xx-7--6--|
A|-9-----6--7-|-7--xx-7--7--|-9-----6--7-|-7-7--xx-7--6--|
E|-7----------|----xx-5--5--|-7----------|------xx-5--4--|


(ponte)

    B     D#m E                B     D#m E
E|-------------|------------|-------------|------------|
B|--------7--9-|------------|--------7--9-|------------|
G|-8------8--9-|------------|-8------8--9-|------------|
D|-9-----------|------------|-9-----------|------------|
A|--------6--7-|------------|--------6--7-|------------|
E|-7-----------|------------|-7-----------|------------|



    B     D#m E                B
E|-------------|------------|-------------|------------|
B|--------7--9-|------------|-------------|------------|
G|-8------8--9-|------------|-8-----------|------------|
D|-9-----------|------------|-9-----------|------------|
A|--------6--7-|------------|-------------|------------|
E|-7-----------|------------|-7-----------|------------|


(solo)

    B5        D#5 E5          A5        B5        D#5 E5          A5  A#5
E|-----------------|-----------------|-----------------|-----------------|
B|-----------------|-----------------|-----------------|-----------------|
G|-----------8-8-9-|-9-9-9-9---------|-----------8-8-9-|-9-9-9-9---------|
D|-9-9-9-9-9-8-8-9-|-9-9-9-9-7-7-7-7-|-9-9-9-9-9-8-8-9-|-9-9-9-9-7-7-8-8-|
A|-9-9-9-9-9-6-6-7-|-7-7-7-7-7-7-7-7-|-9-9-9-9-9-6-6-7-|-7-7-7-7-7-7-8-8-|
E|-7-7-7-7-7-------|---------5-5-5-5-|-7-7-7-7-7-------|---------5-5-6-6-|



    B5        D#5 E5          A5        B5        D#5 E5
E|-----------------|-----------------|-----------------|-----------------|
B|-----------------|-----------------|-----------------|-----------------|
G|-----------8-8-9-|-9-9-9-9---------|-----------8-8-9-|-9-9-9-9-9-9-9-9-|
D|-9-9-9-9-9-8-8-9-|-9-9-9-9-7-7-7-7-|-9-9-9-9-9-8-8-9-|-9-9-9-9-9-9-9-9-|
A|-9-9-9-9-9-6-6-7-|-7-7-7-7-7-7-7-7-|-9-9-9-9-9-6-6-7-|-7-7-7-7-7-7-7-7-|
E|-7-7-7-7-7-------|---------5-5-5-5-|-7-7-7-7-7-------|-----------------|



             B5          D#5 E5                 A5
E|--------|-----------------------|---------------------|
B|-----15-|-17-----19-------------|-------15\-----------|
G|-/16----|------------16---14----|-14-16-16\----14tr16-|
D|--------|-(FULL--------------16-|---------------------|
A|--------|---BEND)---------------|---------------------|
E|--------|-----------------------|---------------------|



    B5          D#5  E5                  A5     A#5
E|-----------------------|---------------------------|
B|-----------------------|---------------------------|
G|-(14)\10tr13------9^11-|-9\7/9--9--7--9^11p7-------|
D|-----------------------|---------------------9-9---|
A|-----------------------|---------------------------|
E|-----------------------|---------------------------|



    B5             D#5   E5                  A5
E|-------------------------|-----------------------|
B|-12----15-------15-------|-15-------17^19-~~~----|
G|-14/16----14-16----14-16-|----14-16--------------|
D|-------------------------|-----------------------|
A|-------------------------|-----------------------|
E|-------------------------|-----------------------|



    B5             D#5   E5
E|-14/17-17-17-16-16-------|-17p16p14----------17^19-~~--|
B|-------------------15-16-|----------17p15h16-----------|
G|-------------------------|-----------------------------|
D|-------------------------|-----------------------------|
A|-------------------------|-----------------------------|
E|-------------------------|-----------------------------|


(refrão)

    B5   D#5 E5        A5      B5   D#5 E5         A5  A#5
E|------------|-------------|------------|---------------|
B|------------|-------------|------------|---------------|
G|-------8--9-|-9-----------|-------8--9-|-9-9-----------|
D|-9-----8--9-|-9--xx-7--7--|-9-----8--9-|-9-9--xx-7--8--|
A|-9-----6--7-|-7--xx-7--7--|-9-----6--7-|-7-7--xx-7--8--|
E|-7----------|----xx-5--5--|-7----------|------xx-5--6--|



    B5   D#5 E5        A5      B5   D#5 E5       B7
E|------------|-------------|------------|-------------------------|
B|------------|-------------|------------|------/12-15-12-15-15-12-|
G|-------8--9-|-9-----------|-------8--9-|-9-9--/14----------------|
D|-9-----8--9-|-9--xx-7--7--|-9-----8--9-|-9-9---------------------|
A|-9-----6--7-|-7--xx-7--7--|-9-----6--7-|-7-7---------------------|
E|-7----------|----xx-5--5--|-7----------|-------------------------|



    B5        D#5 E5          A5        B5        D#5 E5          A5  A#5
E|-----------------|-----------------|-----------------|-----------------|
B|-----------------|-----------------|-----------------|-----------------|
G|-----------8-8-9-|-9-9-9-9---------|-----------8-8-9-|-9-9-9-9---------|
D|-9-9-9-9-9-8-8-9-|-9-9-9-9-7-7-7-7-|-9-9-9-9-9-8-8-9-|-9-9-9-9-7-7-8-8-|
A|-9-9-9-9-9-6-6-7-|-7-7-7-7-7-7-7-7-|-9-9-9-9-9-6-6-7-|-7-7-7-7-7-7-8-8-|
E|-7-7-7-7-7-------|---------5-5-5-5-|-7-7-7-7-7-------|---------5-5-6-6-|



    B5        D#5 E5          A5        B5        D#5 E5          A5  A#5
E|-----------------|-----------------|-----------------|-----------------|
B|-----------------|-----------------|-----------------|-----------------|
G|-----------8-8-9-|-9-9-9-9---------|-----------8-8-9-|-9-9-9-9---------|
D|-9-9-9-9-9-8-8-9-|-9-9-9-9-7-7-7-7-|-9-9-9-9-9-8-8-9-|-9-9-9-9-7-7-8-8-|
A|-9-9-9-9-9-6-6-7-|-7-7-7-7-7-7-7-7-|-9-9-9-9-9-6-6-7-|-7-7-7-7-7-7-8-8-|
E|-7-7-7-7-7-------|---------5-5-5-5-|-7-7-7-7-7-------|---------5-5-6-6-|


(outro)

    B     D#m E                B     D#m E         A  A#
E|-------------|------------|-------------|-------------|
B|--------7--9-|-9----------|--------7--9-|-9-9---------|
G|-8------8--9-|-9----------|-8------8--9-|-9-9---6--7--|
D|-9-----------|------------|-9-----------|-------7--8--|
A|--------6--7-|-7----------|--------6--7-|-7-7---------|
E|-7-----------|------------|-7-----------|-------5--6--|



    B     D#m E                B     D#m E
E|-------------|------------|-------------|------------|
B|--------7--9-|-9----------|--------7--9-|------------|
G|-8------8--9-|-9----------|-8------8--9-|------------|
D|-9-----------|------------|-9-----------|------------|
A|--------6--7-|-7----------|--------6--7-|------------|
E|-7-----------|------------|-7-----------|------------|
23.276 exibições

Comentários 0

Composição: Chiara Canzian / Cliff Richard / Curt Ryle / D. McGregor / Jakob Nebel / Jerome Foster / Joao Mota / Joe Kent / Luiz Ayr
Esse não é o compositor? Avise-nos.
Contribuição: tiaozim Correções: biacastilho »
Consegui tocarAinda não conseguiram tocar essa música. Seja o primeiro!
    Não consegui tocar
    Exibir acordes »
    publicidade
    fechar