Guantanamera

Joseito Fernandez

Sem foto do Joseito Fernandez
Tom: F
		
This tab need two guitars
This is an aucustic
Enjoy

Intro and comp nr1:

     C       F                G         F

e------------------------|----------------------|
B---1---------------1----|-------3------------0-|
G-------0--------2-----2-|----4---------0--2----|  X2
D-----2---2---3----------|-5---------3----------|
A------------------------|----------------------|
E------------------------|----------------------|


(intro with melody guitar)
    C          F                G        F

e-0----------1---------|----3------1----------|
B------1-----------3---|----------------------|
G----------------------|----------------------| X2 Whit comp
D----------------------|----------------------|
A----------------------|----------------------|
E----------------------|----------------------|


(melody) with comp
   C      F       G     F       C       F          G    F

e--5--5-5-5-5--|---------5--|---5--------------|------------|
B--------------|-------6--6-|-8----5--8-8------|------------|
G--------------|------------|------------------|------------|
D--------------|------------|------------------|------------|
A--------------|------------|------------------|------------|
E--------------|------------|------------------|------------|


   C        F        G       F      C       F          G        F

e----------5------|-------5-1---|-----------------|-------------------|
B--5---6-8-----8--|-----------3-|-1---1--0--------|-------------1-3-1-|**
G-----------------|-------------|-----------2---0-|-------------------|
D-----------------|-------------|-----------------|-------------------|
A-----------------|-------------|-----------------|-------------------|
E-----------------|-------------|-----------------|-------------------|

           /\          /\                  /\              /\

           ||          ||                  ||              ||
       normal comp  normal comp            ||              ||

                                  (here does the comp changes) " (-> "

                             C       F                G         F

                       e------------------------|-------------(->-----|
                       B---1---------------1----|-------3-----(->-----|
                       G-------0--------2-----2-|----4--------(->--2--|
                       D-----2---2---3----------|-5---------3-(->-----|
                       A------------------------|-------------(->-----|
                       E------------------------|-------------(->-----|


 continued comp, nr 2
    C      F        G       F

e---------------|----------------|---|
B---------------|------0---------|---|
G------------2--|--0-----------2-|---|
D-----2--3------|-------3--------|---|
A--3------------|----------------|---|
E---------------|----------------|---|


(continued melody) with comp nr 2
     C      F           G        F         C       F        G       F

  e-----------------|-----------0---1-|-0---------------|-----------------|
**B-3--3--1--3-3----|--------3--------|--------1------3-|--3----------1---|
  G-----------------|-----------------|------------2----|-----------------|
  D-----------------|-----------------|-----------------|-----------------|
  A-----------------|-----------------|-----------------|-----------------|
  E-----------------|-----------------|-----------------|-----------------|


   C        F         G        F        C         F       G          F

e-----------------|---------3--3--3-|-3-------1--0----|--------------0-1-|
B-3--3--1--3-3----|-----------------|---------------3-|--3---------3-----|
G-----------------|-----------------|-----------------|------------**----|
D-----------------|-----------------|-----------------|------------------|
A-----------------|-----------------|-----------------|------------------|
E-----------------|-----------------|-----------------|------------------|


Here does the comp follow the melody or someting
like this :
 comp:


e-0--0-----1--1-------|----------------------|-0--0----1--1---------|
B-1--1-----1--1-------|--0--0--3-------------|-1--1----1--1---------|
G---------------------|-----------2----------|----------------------|
D----------3--3-------|----------------------|---------3--3---------|
A-3--3----------------|----------------------|-3--3-----------------|
E---------------------|----------------------|----------------------|


 melody:

e-3--3-----3--5-----3-|--------------5--1----|----------------------|
B---------------------|--------------------3-|-1--1----0------------|
G---**----------------|----------------------|------------2------0--|
D---------------------|----------------------|----------------------|
A---------------------|----------------------|----------------------|
E---------------------|----------------------|----------------------|


Comp
    Stronger and stronger then back to comp nr1

e----------------|
B--0-0-0-0-0-0-0-|
G--0-0-0-0-0-0-0-|
D----------------|
A----------------|
E----------------|


Melody


e--3-3-3-3-1-----|
B------------3-0-|
G----------------|
D----------------|
A----------------|
E----------------|


when you have done this tact you can start from the begining (not intro)
and play untill the comp change, but instead slow down that tact and when the "3" is do 
this

                         |

                         V

e-----------------|    ----------------|
B-----------------|    ---1------------|
G--------------2--|    ---0------------|
D-------2--3------|    ---2------------|
A--"3"------------|    ----------------|
E-----------------|    ----------------|


and with the melody skip the 1--3--1 (there is stands that the comp change)
and wait to next tact and do at the same time as the comp guitar.


                 e--0---------|
                 B--1---------|
                 G--0---------|
                 D------------|
                 A------------|
                 E------------|
2.282 exibições

Comentários 0

Composição: Harry Bannink / Marcelo Hayena
Esse não é o compositor? Avise-nos.
Consegui tocarAinda não conseguiram tocar essa música. Seja o primeiro!
    Não consegui tocar
    Exibir acordes »
    publicidade
    fechar