Judah

Em Ti Confio

258 exibições
Tom: G
   (Introdução: G   D   Em   Am7   D   -   G   D   Em   Am7   D
                G   C9   Em5   D5   D4   -   G   C9   Em5   D5   D4)
 
 G               C9
   Já passei por lutas
Em5               D5          D4
   Maiores do que eu podia imaginar
 G                    C9
   Pensei até em desistir
       Em5
   Mas Tu estás comigo
         D5              D4
   Dando forças pra continuar

Am                           D
   Ainda que por lutas e tristezas 
Am                  D
   Eu tenha que passar
    G                  Em5
   Ainda que venham barreiras
          C9          D5
   Pra tentar me derrubar

      D4     G   C9
   Em Ti confio
           Em5      D5      (2X)
   Em Ti espero, Senhor

D4      Am             C          D
   Pois sei que nunca vais me deixar (3X)
                    G
   Nunca vais me deixar

   (SOLO: G   C9   Em5   D5   D4   -   G   C9   Em5   D5   D4)


TABS:

(INTRO) 


    G                               C
E|--------------------------------------
B|--------------------------------------
G|--14b----14b--14b--14b----14--12--12--
D|--------------------------------------
A|--------------------------------------
E|--------------------------------------


    Em                           D5       D4
E|--------12--14--15--15s17--15------15b--15b--15--13s12----------
B|----12--------------------------------------------------14--12--
G|----------------------------------------------------------------
D|----------------------------------------------------------------
A|----------------------------------------------------------------
E|----------------------------------------------------------------

 

    G                               C
E|---------------------------------------------------------------------
B|--14--12v----------------------------12--13--12----------------------
G|-------------------------------------------------12------------------
D|-----------------------------------------------------12--------------
A|---------------------------------------------------------15--14--12--
E|---------------------------------------------------------------------


    Em                           D5       D4
E|---------------------------------------------------------------------
B|----------------------------------------12--15--13--13--12-----------
G|------------------------------------------------------------12-------
D|----------------------------------------------------------------12v--
A|--14-----------------------------------------------------------------
E|---------------------------------------------------------------------


*OBS: A guitarra intercala com o arranjo da harmônica (gaita-de-boca).


(SOLO)


    G                          C
E|-----------------------------------------------------
B|--13b--13--12----------------12----------------------
G|---------------14----14--14------14--12--14--12------
D|-------------------------------------------------14--
A|-----------------------------------------------------
E|-----------------------------------------------------


    Em                                  D5                    D4
E|-------15------------------------------------------------------------
B|--15b------15b--15b--15b----13b--13b--13b--13--12--12--13b--12-------
G|----------------------------------------------------------------14v--
D|---------------------------------------------------------------------
A|---------------------------------------------------------------------
E|---------------------------------------------------------------------


    G                       C
E|--------------------------14--15--14-----------------------------------------
B|--------------------------------------15-------------------------------------
G|--11--12--11------------------------------14--12s11--------------------------
D|--------------12--14--12-----------------------------14--12------------------
A|-------------------------------------------------------------15--14--12--14--
E|-----------------------------------------------------------------------------


    Em                                  D5            D4
E|---------------------------------------------------------
B|--------------------------------------------12--13--15v--
G|------------------------------12--14--16-----------------
D|----------------12--14--12-------------------------------
A|--15--14----15-------------------------------------------
E|---------------------------------------------------------
    Composição: Norberto AlessioColaboração e revisão:
    • Beto_Judah

    Comentários 0

    conseguiu tocar?

    covers

    Grave um vídeo tocando Em Ti Confio e mande pra gente!

    Ex.: http://www.youtube.com/watch?v=0IvSvIwGdwk
    ver covers de outras músicas »
    0:00 / 0:00

    Capítulos

      2 versões de violãodificuldadeexibiçõescontribuição e correção
      2 versões de guitarradificuldadeexibiçõescontribuição e correção
      2 versões de cavacodificuldadeexibiçõescontribuição e correção
      2 versões de tecladodificuldadeexibiçõescontribuição e correção
      play/pausefechar subir/descer velocidade
      6ª corda E5ª corda A4ª corda D3ª corda G2ª corda B1ª corda E
        acordes
        publicidad
        fechar
        ok