Tom: D
		
Intro

e--------------------------------------------------|
B---7----7----7----7----7--------------------------|
G----------------------------7----7----7p6--6p4----|
D--4----4----4----4----4----4----4----4----4----4--| 
A-5----5----5----5----5----5----5----5----5----5---|
E--------------------------------------------------|

Palm Mute

Verse

e-------------------------|
B-10-10-10-10-10-10--3/---|
G-11-11-11-11-11-11--4/---|
D-12-12-12-12-12-12--5/---|
A-12-12-12-12-12-12--5/---|
E-10-10-10-10-10-10--3/---|


Second Verse Lead

e-------------------------|
B--10---------------------|
G--11-11-11-11b-----------| 
D-----12-12-12b-----------|
A-------------------------|
E-------------------------|


Chorus

Rhythm

e-7-----3--5--|         
B-7-----3--5--|
G-8-----4--6--|
D-9-----5--7--|
A-9-----5--7--|
E-7-----3--5--|


Lead

e----------------------------|
B----------------------------|
G-----------11----------14---| 
D--9-11-12-----9-11-12-------|
A----------------------------|
E----------------------------|


Solo

e--14-----14-----14-----14-----14-----14-----14-----14--------------|
B----15-----15-----15-----15-----15-----15-----15-----15------------|
G------14-----14-----14-----14-----14-----14-----14-----14----------|
D-------------------------------------------------------------------|
A-------------------------------------------------------------------|
E-------------------------------------------------------------------|



e--14-------12b-----12-------------|
B--15-15-15-15b-15--15-15-15-12----|
G-----14-14-----14-----14-14---14--|
D----------------------------------|
A----------------------------------|
E----------------------------------|



e-10------------10---------------------------|
B-10-10-10-10b--10-10-10---------------------|
G----11-11-11b-----11-11-12p11-9h11p9-7h9p7--|
D--------------------------------------------|
A--------------------------------------------|
E--------------------------------------------|


Outro

e--14-----14-----14-----14-----14-----14-----14-----14--------------|
B----15-----15-----15-----15-----15-----15-----15-----15------------|
G------14-----14-----14-----14-----14-----14-----14-----14----------|
D-------------------------------------------------------------------|
A-------------------------------------------------------------------|
E-------------------------------------------------------------------|


please rate/comment


Comentários 0

Composição: A. Carlsson / Andri Anima / Bob Fitts / E. Greenwich / Jerry Gaskill / Jimmie Rodgers / R. Riedel / Sam Cooke / Sandra Nasic / Tenisson Del Rey
Esse não é o compositor? Avise-nos.
Consegui tocarAinda não conseguiram tocar essa música. Seja o primeiro!
    Não consegui tocar
    Exibir acordes »
    publicidade
    fechar