I love it loud

Kiss

 Kiss
Tom: G
		
E Tuning

Key:
/    = slide up
\    = slide down
b    = bend (whole step)
b^   = bend (1/2 step)
b^^  = bend (1 1/2 steps)
pb   = pre-bend
r    = release-bend
r^   = release-bend half-step
h^   = hammer-on
p^   = pull-off
~    = Vibrato
*    = Natural Harmonic
#(#) = Trill
**   = Artificial Harmonic
x    = Muted String (Palm Muting)
X    = Muted String (Fretboard Muting)
(\)  = Dive w\bar


A pretty basic rocker. Feel free to improvise on the rhythm a bit. The solo is just unison bends
played in fairly standard positions.


Rhythm Fig. 1


E|----------------------------------------------------|
B|------------------------------4---------------------|
G|--4--4----4--4--4-----4---4---4--4-----4-----4------|
D|--4--4-4--4--4--4--4--4---4---4--4--4--4--4--4------|
A|--2----2-----0-----0--0---2---2--2--0-----0---------|
E|----------------------------------------------------|



E|------------------------3---------------------------|
B|---------4--------------3---3---3-------------------|
G|-4-4--4--4------4-------0---2---2---2---------------|
D|-4-4--4--4--4---4-4-----0---0---0---2---------------|
A|-2----2-----0---0-0-----X-----------0---------------|
E|------------------------3---------------------------|



Rhythm Fig. 1a


E|----------------------------------------------------|
B|---------------------------------------------4------|
G|--4--4----4--4--4--4--4-----4-4-4-4-4-4-4-4--4------|
D|--4--4-4--4--4--4--4--4-----4-4-4-4-4-4-4-4--4------|
A|--2----2--2--0--0--0--0--0--2-2-2-2-0-0-0-0---------|
E|----------------------------------------------------|



E|------------------------3---2---2-------------------|
B|------4-----------------3---3---3---------9---------|
G|-4-4--4--4--------------0---2---2---2-----9---------|
D|-4-4--4--4--4-4---------0---0---0---2-----9---------|
A|-2-2--2--0--0-0---------X-----------0-----7---------|
E|---------0--------------3-----------------0---------|




Rhythm Fig. 1b


E|----------------------------------------------------|
B|------------------------------4-----------4---------|
G|--4--4-4-----4--4-----4---4---4--4--4--4--4--4------|
D|--4--4-4--4--4--4--4--4---4---4--4--4--4--4--4--4---|
A|--2----2--2--0-----0--0---2------2--2--0--0--0--0---|
E|----------------------------------------------------|



E|------------------------3---------------------------|
B|---4-----4--4-----------3---3-----------------------|
G|-4-4--4--4--4---4--4----0---2---2---2---------------|
D|-4-4--4--4--4---4--4----0---0---0---2---------------|
A|-2----2-----0------0----X-----------0---------------|
E|------------------------3---------------------------|



Rhythm Fig. 2


E|----------------------------------------------------|
B|-----------------9------X-2-------------------------|
G|--4-----4--2-----9------X-2---4-4-4-4-4--2----------|
D|--4-----4--2-----9------X-2---4-4-4-4-4--2----------|
A|--2-----2--0-----7--------0---2-2-2-2-2--0----------|
E|-----------------0--------------------------3---5---|



E|--------------------------------------------3-------|
B|-----------------9------X-2-----------------3--X-3--|
G|--4-----4--2-----9------X-2---4-4-4-4-4--2--0--X-2--|
D|--4-----4--2-----9------X-2---4-4-4-4-4--2--0--X-0--|
A|--2-----2--0-----7--------0---2-2-2-2-2--0--X-------|
E|-----------------0--------------------------3-------|


  end. 1

E|----------------------------------------------------|
B|--9-------------------------------------------------|
G|--9-------------------------------------------------|
D|--9-------------------------------------------------|
A|--7-------------------------------------------------|
E|--0-------------------------------------------------|



Rhythm Fig. 2a


E|----------------------------------------------------|
B|-----------------9--------2-------------------------|
G|--4-----4--2-----9------9-2---4-4-4-4-4-2-9---------|
D|--4-----4--2-----9------9-2---4-4-4-4-4-2-9---------|
A|--2-----2--0-----7------X-0---2-2-2-2-2-0-7---------|
E|-----------------0------------------------0--3---5--|



E|--------------------------------------------3-------|
B|-----------------9------X-------------------3--X-3--|
G|--4-----4--2-----9------X-2---4-4-4-4-4--2--0--X-2--|
D|--4-----4--2-----9------X-2---4-4-4-4-4--2--0--X-0--|
A|--2-----2--0-----7--------0---2-2-2-2-2--0--X-------|
E|-----------------0--------------------------3-------|


  

E|----------------------------------------------------|
B|--9-------------------------------------------------|
G|--9-------------------------------------------------|
D|--9-------------------------------------------------|
A|--7-------------------------------------------------|
E|--0-------------------------------------------------|




Rhythm Fig. 3


E|----------------------------------------------------|
B|-----------------------7----------------------------|
G|------2---7-7--\--5-/--7---2-2----7-7--\--5--7---2-2|
D|------2---7-7--\--5-/--7---2-2----7-7--\--5--7---2-2|
A|------0---5-5--\--3-/--5---0-0----5-5--\--3--5---0-0|
E|-3b^----------------------------5-------------------|



E|----------------------------------------------------|
B|------------------7---------------------------------|
G|-2---7-7--\--5----7---2-2----7-7--\--5--7-----------|
D|-2---7-7--\--5----7---2-2----7-7--\--5--7-----------|
A|-0---5-5--\--3----5---0-0----5-5--\--3--5-----------|
E|----------------------------------------------------|



Rhythm Fig. 4


E|----------------------------------------------------|
B|-------------------------------5--------------------|
G|------------------2----7-7-\---5--7---2-2--7-7------|
D|------------------2----7-7-\---5--7---2-2--7-7------|
A|------------------0----5-5-\---4--5---0-0--5-5------|
E|------------3b^-------------------------------------|
                    <--------------8x----------->


Solo


E|----------------------------------------------------|
B|------7------9-----10-------9-----7-----5----3-(\)--|
G|------9b~----12b---12b~-----11b---9b~---7b---5b(\)--|
D|----------------------------------------------------|
A|----------------------------------------------------|
E|----------------------------------------------------|



I LOVE IT LOUD

[Rhythm Fig. 1]
Stand up, you don't have to be afraid, get down - love is like a hurricane
Street boy, no I never could be tamed, better believe it

[Rhythm Fig. 1a]
Guilty 'til I'm proven innocent, whiplash, heavy metal accident
Rock on, I wanna be President, 'cos

[Rhythm Fig. 2]
I love it loud, I wanna hear it loud, right between the eyes
Loud, I wanna hear it loud, I don't want no compromise

[Rhythm Fig. 1]
Turn it up, hungry for the medicine, two fisted to the very end
No more treated like aliens, we're not gonna take it

[Rhythm Fig. 1a]
No lies, no more alibis, turn it up, it's got me hypnotized
Rock on, I won't be tranquilized, 'cos

[Rhythm Fig. 2]
I love it loud, I wanna hear it loud, right between the eyes
Loud, I wanna hear it loud, I don't want no compromise

[Rhythm Fig. 2 w/end.1]
I love it loud, I wanna hear it loud, right between the eyes
Loud, I wanna hear it loud, I don't want no compromise

[Rhythm Fig. 3]
Ay yeah, Ay yeah, Ay yeah, Ay yeah
Ay yeah, Ay yeah, Ay yeah, Ay yeah, Turn it up

[Solo] w/ [Rhythm Fig. 1a]

[Rhythm Fig. 1b]
Headlines jungle is the only rule, front page roar of the nation cool
Turn it up, this is my attitude, take it or leave it

[Rhythm Fig. 2a](5x) [3x start fade]
I love it loud, I wanna hear it loud, right between the eyes
Loud, I wanna hear it loud, I don't want no compromise

[Rhythm Fig. 4] (Until fade)
Ay yeah, Ay yeah, Ay yeah, 
Ay yeah, Ay yeah, Ay yeah, 
Ay yeah, Ay yeah, Ay yeah, 
Ay yeah, Ay yeah, Ay yeah, 
Ay yeah, Ay yeah, Ay yeah, 
Ay yeah, Ay yeah, Ay yeah, 
Ay yeah, Ay yeah, Ay yeah, 
Ay yeah, Ay yeah, Ay yeah, 

Comentários 1

Composição: D-Maq / David Mackechnie / Paul Stanley / Robert Foster
Esse não é o compositor? Avise-nos.
Exibir acordes »
publicidade
fechar