Thoughtless

Korn

 Korn
Tom: G
		
 VERSÃO SIMPLES

  INTRO:MUNKY

 E|--------------------------------------------------------|
 B|--------------------------------------------------------|
 G|--------------------------------------------------------|
 D|--------------------------------------------------------|
 A|-----0-0-0-0--0-0-0-0--0-0-0-0--0-0-0-0-----------------|
 E|-----3-3-3-3--3-3-3-3--3-3-5-5--5-5-6-6-----------------|

 
  INTRO:HEAD   

 E|-----------------|
 B|-10--13----9\0---|
 G|-----------------|
 D|-7---10----6\0---|
 A|-----------------|
 E|-----------------|

 
  VERSE :

 E|---------------------------------------------|
 B|---------------------------------------------|
 G|---------------------------------------------|
 D|-5-5-5-5---5-5-5-5---5-5-7-7---7-7-8-8-------|
 A|-5-5-5-5---5-5-5-5---5-5-7-7---7-7-8-8-------|
 E|-3-3-3-3-0-3-3-3-3-0-3-3-5-5-0-5-5-6-6-------| 



  PRE-CHORUS: 

 E|-----------------------------------------|
 B|-----------------------------------------|
 G|-----------------------------------------|
 D|-5-5-5-5-6-6-6----5-5-5-5-6-6-6-6--------|
 A|-5-5-5-5-6-6-6----5-5-5-5-6-6-6-6--------|
 E|-3-3-3-3-4-4-4----3-3-3-3-4-4-4-4--------|



  CHORUS: 

 E|------------------------------------------|
 B|------------------------------------------|
 G|-7-7-7-7-10-10-10-10-5-5-5-5-3-3-3-3------|
 D|-7-7-7-7-10-10-10-10-5-5-5-5-3-3-3-3------|
 A|-5-5-5-5--8--8--8--8-3-3-3-3-1-1-1-1------|
 E|------------------------------------------|


 
  
  OUTRO: 

 E|------------|
 B|-9\0--------|
 G|------------|
 D|-6\0--------|
 A|------------|
 E|------------|

======================================================================================
                            KoRn - Thoughtless/UNTOUCHABLES

 VERSÃO 2

 x pulm muted
 \ slide  
 / slide

  (clean) delay

 |--------------------------------------------------------|
 |--------------------------------------------------------|
 |--------------------------------------------------------|
 |--------------------------------------------------------|
 |---------5------5-----5------7-----7------7-----8-8-8-8-|
 |-0-0-0-0----0-0---0-0----0-0---0-0----0-0---0-0---------|

 G2 MUNKY            INTRO/INTERLUDE                 RIFF1

  (distorted) and some weird effect

 |-----------------|
 |-12--15----11\0--|
 |-----------------|
 |-9---12----8\0---|
 |-----------------|
 |-----------------|

 G1    HEAD   RIFF2

  (distorted)

 |---------------------------------------------------------|
 |---------------------------------------------------------|
 |---------7------7-----7------9-----9------9-----10101010-|
 |-6-6-6-6-7------7-----7------9-----9------9-----10101010-|
 |-6-6-6-6-5------5-----5------7-----7------7-----8-8-8-8--|
 |-4-4-4-4----0-0---0-0----0-0---0-0----0-0---0-0----------| 

 G1+G2 HEAD/MUNKY          VERSE                      RIFF3

 (distorted)

 |-------------------------------|
 |-------------------------------|
 |-/11-/10---/8---/11-/10---7-8--|
 |-------------------------------|
 |-------------------------------|
 |-------------------------------|

 G1 HEAD       VERSE        RIFF4

 (distorted)

 |-----------------------------------------|
 |-----------------------------------------|
 |-----------------------------------------|
 |-5-5-5-5-6-6-6-5---5-5-5-5-6-6-6-6\3-3333|
 |-5-5-5-5-6-6-6-5---5-5-5-5-6-6-6-6\3-3333|
 |-3-3-3-3-4-4-4-3---3-3-3-3-4-4-4-4\1-1111|

 G2 MUNKY    PRE CHORUS  PART1        RIFF5

 (distorted)

 |------------------------------------------|
 |------------------------------------------|
 |------------------------------------------|
 |-5-5-5-5-6-6-6-5---5-5-5-5-6-6-6-6\4-4422-|
 |-5-5-5-5-6-6-6-5---5-5-5-5-6-6-6-6\4-4422-|
 |-3-3-3-3-4-4-4-3---3-3-3-3-4-4-4-4\2-2200-|

 G2 MUNKY    PRE CHORUS  PART2         RIFF6

 (distorted) fast tremlo

 |-------------------------------|
 |-------------------------------|
 |-------------------------------|
 |-9--10----12-----9--10----1213-|
 |-------------------------------|
 |-------------------------------|

 G1 HEAD    PRE CHORUS      RIFF7

 (distorted)

 |---------------------------------------------------------------------------------|
 |---------------------------------------------------------------------------------|
 |---------------------------------------------------------------------------------|
 |-6666--6-6-6666--6-8-9999--9-9-9999--9-9-4444--4-4-4444--4-4-2222--2-2-2222-2244-|
 |-6666--6-6-6666--6-8-9999--9-9-9999--9-9-4444--4-4-4444--4-4-2222--2-2-2222-2244-|
 |-4444--4-4-4444--4-6-7777--7-7-7777--7-7-2222--2-2-2222--2-2-0000--0-0-0000-0022-|

         x x       x x       x x       x x       x x       x x       x x
 G1+G2 HEAD/MUNKY                     CHORUS                          RIFF8

 (clean) delay

 |--------------------------------------------------------------|
 |--------------------------------------------------------------|
 |--------------------------------------------------------------|
 |--------------------------------------------------------------|
 |-5-5-5-5-5-5-5-5-5-5-5-5-5-5-5-5---7-----7------7-----8-8-8-8-|
 |---------------------------------0---0-0----0-0---0-0---------|

 G2 MUNKY                      BRIDGE                      RIFF9

 (clean) delay

 |-----------------------------------------------------------------|
 |-----------------------------------------------------------------|
 |-----------------------------------------------------------------|
 |-----------------------------------------------------------------|
 |-5-5-5-5-5-5-5-5-5-5-5-5-5-5-5-5-7-7-7-7-7-7-7-7-7-7-7-7-8-8-8-8-|  
 |-----------------------------------------------------------------|

 G1 HEAD                      BRIDGE                         RIFF10
  
 (distorted) some weird effect

 |------------|
 |-11\0-------|
 |------------|
 |-8\0--------|
 |------------|
 |------------|

 G1 HEAD RIFF11

            song stucture

 HEAD                          MUNKY

                   INTRO     G2 RIFF1   X1
 G1 RIFF2   X2               G2 RIFF1   X2
 G1 RIFF2   X1
 G1 RIFF3   X2               G2 RIFF3   X2 
 G1 RIFF4   X2     VERSE     G2 RIFF3   X4
 G1 RIFF7   X1   PRE CHORUS  G2 RIFF5   X1
 G1 RIFF7   X1               G2 RIFF6   X1
 G1 RIFF8   X2     CHORUS    G2 RIFF8   X2
 G1 RIFF3   X2     VERSE     G2 RIFF3   X2 
 G1 RIFF4   X1               G2 RIFF3   X2
 G1 RIFF7   X1   PRE CHORUS  G2 RIFF5   X1
 G1 RIFF7   X1               G2 RIFF6   X1
 G1 RIFF8   X2     CHORUS    G2 RIFF8   X2
 G1 RIFF10  X1     BRIDGE    G2 RIFF9   X1
 G1 RIFF10  X3               G2 RIFF1   X3
 G1 RIFF3   X2               G2 RIFF3   X2
 G1 RIFF2   X2               G2 RIFF3   X2
 G1 RIFF2   X1
 G1 RIFF8   X4     CHORUS    G2 RIFF8   X4
 G1 RIFF11  X1     OUTRO

Comentários 0

Composição: Korn
Esse não é o compositor? Avise-nos.
Contribuição: Big
Exibir acordes »
publicidade
fechar