The Model

Kraftwerk

 Kraftwerk
Tom: B
		


From * Wed Apr 16 10:56:48 1997
Date: Fri, 11 Apr 1997 07:00:59 PDT
From: pa i 
To: *


--====================987654321_0==_

Content-Type: text/plain; charset="us-ascii"

Here ya go!


---------------------------------------------------------
Get Your *Web-Based* Free Email at http://*
---------------------------------------------------------

--====================987654321_0==_

Content-Type: text/plain; name="*"
Content-Disposition: attachment; filename="*"

				            by

Transcribed by:Axl Ice
970411
*

E                       G(5)   B

|---------------------------------------|
|---------------------------------------|
|-----9---9-9-9-12-11-9-11---7----------|
|(9)---------------------------9--------|
|---------------------------------------|
|---------------------------------------|



E                       G(5)   B

|---------------------------------------|
|---------------------------------------|
|-----9~--------12-11-9-11---7----------|
|-9----------------------------9--------|
|---------------------------------------|
|---------------------------------------|


She's a model and she's looking good
I'd like to take her home that's understood
She plays hard to get, she smiles from time to time
It only takes a camera to change her mind

She's going out tonight but drinking just champagne
And she has been checking nearly all the men
She's playing her game and you can hear them say
She is looking good, for beauty we will pay

She's posing for consumer products now and then
For every camera she gives the best she can
I saw her on the cover of a magazine
Now she's a big success, I want to meet her again......


--====================987654321_0==_

Content-Type: text/plain; charset="us-ascii"


--====================987654321_0==_--

Comentários 0

Composição: Amund Bjørklund / Bernice Williams / E. Wilson / Emil Schult / Oliver Sykes / Ralf Hütter / Richard Grant
Esse não é o compositor? Avise-nos.
Exibir acordes »
publicidade
fechar