Princesa

Ludov

 Ludov
Tom: D
		
Intro : Em  D  (2x) 
 
Solo

e|------------------------------------------------------
B|-------10-12-10-12------10-12-10-12-----14/12---10----
G|--9/11------------------------------------------------
D|------------------------------------------------------
A|------------------------------------------------------
E|------------------------------------------------------


Em                     D 
Sei que há contas a pagar 
  Em                  D 
e há razões pra terminar 
   Em           D 
A semana toda ficou para trás 
Em            A       D 
Ela tem trabalhado demais 
 
F#            Bm 
Como seria melhor 
F#                 Bm 
Se não houvesse refrão nenhum  
       Em   G  A 
mas aaaah  
 
D              Em     A 
E no seu apartamento 
D                   Em    A 
Ela se esquecia de tudo 
G               Gm 
parecia uma princesa 
Em           A          D         Bm 
Não se importava com o resto do mundo 
Em            A              G         Gm 
E largava os pés em cima da mesa 
 
Solo   
Em D Em D 

Em D7+ Em D7+ 
e|---------------------------------------------------------------------
B|---------------------------------------------7-7-8-7-10-10-7-----------
G|-------------------7-----------------7-7-7/9-----------------7--7/9-7--
D|---9-12-12-7-7/9-7---7---------7-7/9---------------------------7-------
A|-----------------------10-9-7------------------------------------------
E|---------------------------------------------------------------------



e|----------------------------------------------------------------------------------7-10-12/7-7-7-
B|---10/7-7-7-10-10-10/7-7-7-10/7-----------------------------------------------7-10--------------
G|--------------------------------9-7-7---------------------------7-6-----9-7-9-------------------
D|--------------------------------------7/9-7/9-7-------------7/9-----7-9-------------------------
A|--------------------------------------------------------7/9-------------------------------------
E|------------------------------------------------10-7-10-----------------------------------------

 

e|--------------------7/10------------------------------
B|--10-8-7-8/7--------7/10------------------------------
G|-------------9-7-6------------------------------------
D|------------------------------------------------------
A|------------------------------------------------------
E|------------------------------------------------------


F#            Bm 
Como seria melhor 
F#                 Bm 
Se não houvesse refrão nenhum  
    Em   G  A 
mas há  
 
 
D               Em    A 
E no seu apartamento 
D                   Em      A 
Ela se esquecia de tudo 
G                Gm 
Não havia contratempo 
Em     A        D      Bm 
Ela segurava o seu coração 
   Em         A            G      Gm      D 
e largava as roupas pelo chão
68.583 exibições

Comentários 2

  • mascote mascote: Postado em 15/01/2014 18:52

    tranquilo

  • Maryjane Maryjane: Postado em 30/03/2013 23:05

    Gostaria de comentar que na segunda frase está faltando um Bm no final da frase quando a música diz A semana toda ficou para tráz aí q entra

Composição: Mauro Motoki
Esse não é o compositor? Avise-nos.
Contribuição: MinEiRoo Correções: Yuri , anao e mais 2 »
Exibir acordes »
publicidade
fechar