Storm

Luna Sea

 Luna Sea
Tom: E
		
Intro:


   C#m     B	   A	   B      C#m      B       A	 
e|------------------------------------------------------
B|------------------------------------------------------
G|-----6-------4-------2-------4-------6-------4---2----
D|---6---6---4---4---2---2---4---4---6---6---4---4-2----
A|-4-------2-------0-------2-------4-------2-------0----
E|------------------------------------------------------


C#m 4x, A 2x,F#,B (2x) A

C#m 4x, A 2x,F#,B (4x)

Futo me wo samashita mayonaka no purachina no hikari No naka
Guiraguira to kagayaita kono machi mo warukunai
Kimi to nara kono arashi mo norikoerareru hazu sa
Do you like it rough? tokimeki wo soo sa motome
Tsuzukeyoo

Do you like it rough?

(refrão)
E	       G#m 		  C#m		E
Ima fuki areru arashi no naka soo dakiatte Tashikameatte
    A		   B			C#m	B
Ushinau mono nado nani mo nakatta hazu da ne

E	       	  G#m 		  C#m		
Te wo nobasanakya ano hikari sae tsukamenai
	E			 A		   B
What will it take for you kimi ga nozomu yoo ni boku mo Nozonderu


   C#m     B	   A	   B      C#m      B       A	 
e|------------------------------------------------------
B|------------------------------------------------------
G|-----6-------4-------2-------4-------6-------4---2----
D|---6---6---4---4---2---2---4---4---6---6---4---4-2----
A|-4-------2-------0-------2-------4-------2-------0----
E|------------------------------------------------------


Base do solo:
(lembrando que a base é feita em uma única palhetada por nota)
E   G#m   C#m   E   A   B  C#m  B   C#m    E   G#m   C#m   E   A   B  C#m  B   C#m

E	       G#m 		  C#m		E
Ima fuki areru arashi no naka soo dakiatte Tashikameatte
    A		   B			C#m	B
Ushinau mono nado nani mo nakatta hazu da ne
E		   G#m		   C#m		    E
Shinjitsu wa kitto okubyoo dakara sono sugata wo kesshite Misenai
  A		   B
Dakedo bokura wa hanaretari wa shinai kara
E	       	  G#m 		  C#m		
Te wo nobasanakya ano hikari sae tsukamenai
	E			 A		   B
What will it take for you kimi ga nozomu yoo ni boku mo


   C#m     B	  A	   B      C#m      B       A	 
e|------------------------------------------------------
B|------------------------------------------------------
G|-----6-------4-------2-------4-------6-------4---2----
D|---6---6---4---4---2---2---4---4---6---6---4---4-2----
A|-4-------2-------0-------2-------4-------2-------0----
E|------------------------------------------------------


Kiss me in the stormy
Kiss me in the stormy 

C#m 4x, A 2x,F#,B (2x) A
1.682 exibições

Comentários 1

  • kidpunk kidpunk: Postado em 03/06/2011 19:29

    otima banda de jrock

Composição: ???
Esse não é o compositor? Avise-nos.
Contribuição: shimoio Correções: shimoio »
Exibir acordes »
publicidade
fechar