Nossa Canção

Mallu Magalhães

 Mallu Magalhães
Tom: G
		
 G          B7             Em       D7
Olha aqui,preste atenção essa é a nossa
   G   C                 D7        C
Canção.vou cantá-la seja onde for para
           D7             C          D7
Nunca esquecer o nosso amor,nosso amor
 G         B7      Em    D7            G
Veja bem,foi você    a razão e o porquê
C                 D7         C
De nascer essa canção assim pois você
     D7                  G G4 G G9 G
É o amor que existe em mim
         B7          Em        B7
Você partiu e me deixou nunca mais você
   Em           D7           G
Voltou pra me tirar da solidão
 Am       B7       Am         B7
E até você voltar meu bem eu vou cantar
 D7             G
Essa nossa canção.


Solo: G  B7  Em  D7  G  C  D7  C  D7  C  D7  D  G
E|------------------------------------|
B|-------------------------5----------|
G|--4---4-4b5-4---4-----4-----7-----4-|
D|----7---------7----7----------7-----|
A|------------------------------------|
E|------------------------------------|



E|------------------------------------|
B|----------------5-8-7-5-------------|
G|----------4-5-7---------7-6-5-------|
D|--------7---------------------------|
A|------------------------------------|
E|------------------------------------|


E|------------------------------------|
B|-----------5-7-8--------------------|
G|--- 4-5-----------------------------|
D|--------7---------------------------|
A|------------------------------------|
E|------------------------------------|

    B7          Em        B7
Você partiu/e me deixou/nunca mais você
   Em           D7           G
Voltou/pra me tirar da solidão
 Am       B7       Am         B7
E até você voltar/meu bem eu vou cantar
 D7             G
Essa nossa canção
8.542 exibições

Comentários 0

Composição: Luiz Ayrão
Esse não é o compositor? Avise-nos.
Contribuição: paulinhacaminha
Exibir acordes »
publicidade
fechar