Ó Abre Alas

Marchinhas de Carnaval

 Marchinhas de Carnaval
Tom: C
		
Intro:  Dm   Am   B7   E7   A7
        Dm   Am   B7   E7   Am

Primeira Parte:
                E7           Am
Ó Abre-Alas que eu quero passar
                E7           Am   A7
Ó Abre-Alas que eu quero passar
           Dm               Am
Eu sou da lira não posso negar
           E7               Am
Eu sou da lira não posso negar

                E7           Am
Ó Abre-Alas que eu quero passar
                E7           Am   A7
Ó Abre-Alas que eu quero passar
        Dm                  Am
Rosa de ouro é quem vai ganhar
        E7                  Am
Rosa de ouro é quem vai ganhar

Segunda Parte:
G7              C                   Dm           G7       C
Eu não quero a rosa. Por que não a Rosa que não tenha espinhos?
    E7                     Am               B7              E7  F7  E7
Prefiro a jardineira carinhosa, a flor cheirosa dos seus carinhos.
    E7               Am
Prefiro a rosi carinhosa
          Bm7(5-)         E7   F7 E7
a linda flor dos teus camrinhos

Intro:
(Violão Solo)

   Dm                             Am
E|---------7-8-7----8-7----8-7--------------|
B|------10-------10-----10-----10-----------|
G|-10-----------------------------9---------|
D|------------------------------------------|
A|------------------------------------------|
E|------------------------------------------|


                             B7
E|----7-8-7----8-7----8-7-------------------|
B|-10-------10-----10-----10----------------|
G|---------------------------8--------------|
D|------------------------------------------|
A|------------------------------------------|
E|------------------------------------------|


1ª vez:

        E7       A7
E|-7---------8-7-7--------------------------|
B|---10-9-----------------------------------|
G|------------------------------------------|
D|------------------------------------------|
A|------------------------------------------|
E|------------------------------------------|

2ª vez:

        E7        Am
E|-7----------8-7---------------------------|
B|---10-9---------10------------------------|
G|------------------------------------------|
D|------------------------------------------|
A|------------------------------------------|
E|------------------------------------------|


Baixarias:

   Dm                  Am
E|-1-------------------0--------------------|
B|-3-------------------1--------------------|
G|-2---------------2---2--------------------|
D|-0---0-2-3-2-3-5-----2-----0-2-0-2-3-2----|
A|---0-----------------0-2-3----------------|
E|------------------------------------------|


1ª vez:

   B7         E7
E|------------------------------------------|
B|------------------------------------------|
G|------------------------------------------|
D|-------4---------6------------------------|
A|-----6-------5-7--------------------------|
E|-5-7-------7------------------------------|


   A7
E|-3----------------------------------------|
B|-2----------------------------------------|
G|-2-----------3-2h3p2----------------------|
D|---5-2---2-5---------5-2------------------|
A|-0-----4-----------------4-0--------------|
E|------------------------------------------|


2ª vez:

   B7         E7     Am
E|------------------------------------------|
B|------------------------------------------|
G|------------------------------------------|
D|-------4---------6---9/10-9--7/9-7--------|
A|-----6-------5-7--------------------------|
E|-5-7-------7---------7/8--7--5/7-5--------|


Solo:

         Am    E7          Am
E|-8-8-7-7----8-7h8p7-----------------------|
B|---------10---------10-9-10---------------|
G|------------------------------------------|   (2x)
D|------------------------------------------|
A|------------------------------------------|
E|------------------------------------------|


  A7       Dm                   Am
E|------------------------------------------|
B|-10-10-8-8----10-10-8h10p8----------------|
G|-----------10--------------10-9-----------|
D|------------------------------------------|
A|------------------------------------------|
E|------------------------------------------|


         E7                      Am
E|-----7-12----12-10h12p10------------------|
B|---9------12-------------13-12-10---------|
G|-9----------------------------------------|
D|------------------------------------------|
A|------------------------------------------|
E|------------------------------------------|
22.783 exibições

Comentários 1

  • judocaamarela judocaamarela: Postado em 06/04/2012 17:24

    uma marchinha de carnaval muito boa

Composição: Chiquinha Gonzaga
Esse não é o compositor? Avise-nos.
Contribuição: Caroline
Exibir acordes »
publicidade
fechar