Take Me To Your Heart

Michael Learns To Rock

 Michael Learns To Rock
Tom: G
		
			  take me to your heart - M.L.T.R
Tabbed by:rock master
Email:*

Tuning:standard

verse:

e|---3-------------2------------------------------------------------------|
B|---3--------1----3------------------------------------------------------|
G|------------0----2------------------------------------------------------|
D|-------2----2-----------------------------------------------------------|
A|---2---2----3-----------------------------------------------------------|
E|---3--------3-----------------------------------------------------------|


pre chorus:

e|--------2--------3----|--------2-------2----------------------------|
B|--------3----1---3----|--------3---1---3----------------------------|
G|--------4----0--------|--------4---0---2----------------------------|
D|---2----4----2--------|---2----4---2--------------------------------|
A|---2----2----3---2----|---2----2---3--------------------------------|
E|--------2----3---3----|--------2---3--------------------------------|


chorus 1:

e|---3-------------2-|-----2---------2---------------------------------|
B|---3--------1----3-|-----3------1--3---------------------------------|
G|------------0----2-|-----4------2--2---------------------------------|
D|-------2----2------|-----4---2--2------------------------------------|
A|---2---2----3------|-----2---2---------------------------------------|
E|---3--------3------|-----2-------------------------------------------|

 \\     \\
chorus 2:

e|---3-------------2---|
B|---3--------1----3---|
G|------------0----2---|
D|-------2----2--------|
A|---2---2----3--------|
E|---3--------3--------|   

  \\

Comentários 0

Composição: Jacky Zhang; Jascha Richter
Esse não é o compositor? Avise-nos.
Exibir acordes »
publicidade
fechar