Todo Joelho

MVC Louvar

Sem foto do MVC Louvar Compositor: Patrick Peterson
Tom: A
		

 Intro: A  D
E|---------------------------------------------|
B|---------------------------------------------|
G|---------------------------------------------|
D|-----7-7--6-6--7-7--9-9--7-7--6-6--7-7-------|    (2x)
A|---------------------------------------------|
E|-5-5-----------------------------------------|



E|---------------------------------------------|
B|---------------------------------------------|
G|---------------------------------------------|
D|-----7-7--6-6--7-7--9-9--7-7--6-6--7-7-------|
A|-5-5-----------------------------------------|
E|---------------------------------------------|



E|---------------------------------------------|
B|---------------------------------------------|
G|---------------------------------------------|
D|-----7-7--6p7-6-7/9-7-6p7-6------------------|
A|-5-5-----------------------------------------|
E|-----------------------------5---------------|


    A     E
O grande dia chegara
      F#m        D
Eu verei face a face o meu Deus
     A          E
Toda terra ouvirá o som dos céus
     F#m            D
É o som da minha vitória

 F#m                  E
Todos terão que se prostar (se prostar)
 F#m            E
Diante do meu Deus

Refrão:
     A          E
Todo joelho
         F#m      D
Se dobrará
       A          E
E toda Língua
        F#m      D
Confessara

        F#m      D
Confessara (5x)
940 exibições

Comentários 0

Composição: Patrick Peterson
Esse não é o compositor? Avise-nos.
Contribuição: iemvc
Consegui tocarAinda não conseguiram tocar essa música. Seja o primeiro!
    Não consegui tocar
    Exibir acordes »
    publicidade
    fechar