The Evil That Man Do

Naglfar

 Naglfar
Tom: G
		
Autor: Tiago Ramalhais (*)

Note: This is a version of the IRON MAIDEN song, i dont know the original...



|-14~~-/16-16b(17)r-16-14-------/16---------------------------------------|
|-------------------------17--\-----17----17------------------------------|
|--------------------------------------16----16---------------------------|
|-----------------------------------------------16------------------------|
|--------------------------------------------------14~~--/12-----14-14-12-|
|-------------------------------------------------------------14----------|

                                                              .. ..


|----------------------------------------12--------------|
|--------------------------------10-9-10-----10-9-10-----|
|----------------------11~~--/11---------------------9~--|
|--------------------------------------------------------|
|----14-13-11-14-13-11-----------------------------------|
|-14-----------------------------------------------------|

  .. .. .. .. .. .. ..


|------------12----------------12----------------12----------|
|------10----------------10----------------10----------------|
|-/11-----11-----11-/11-----11-----11-/11------------11-/11~~|
|------------------------------------------------------------|
|------------------------------------------------------------|
|------------------------------------------------------------|




|-/16-----------------------------21--19-17-16h17-17-16----16--------------------------|
|-----17----17-16---------------------------------------19----19-17-19-17-16-17--------|
|--------16-------16-------------------------------------------------------------------|
|--------------------16-18------------------------------------------------------16-17\-|
|--------------------------19-16~~-----------------------------------------------------|
|--------------------------------------------------------------------------------------|
912 exibições

Comentários 0

Composição: Smith, Harris, Dickson
Esse não é o compositor? Avise-nos.
Consegui tocarAinda não conseguiram tocar essa música. Seja o primeiro!
    Não consegui tocar
    Exibir acordes »
    publicidade
    fechar